Ads

Nothing to Lose (Castlevania) Guitar Tab

Submitted: Aug 03, 2014 by ltm_1988 (Last updated: Aug 14, 2014)

5
Average: 5 (1 vote)
Download | Listen
Game: Castlevania
Composer(s): Kinuyo Yamashita
Style: Arrangement, Fingerstyle
Series: Castlevania

This song is also called Stage 6 Part 2

AutoScroll: Slow | Medium | Fast
Nothing To Lose (Stage 6 Part 2)
Castlevania
Kinuyo Yamashita
ltm_1988
7/31/2014

          |-3-|       |-3-|         |-3-|       |-3-|
    Q     E E E Q     E E E   Q     E E E Q     E E E   Q     Q     Q     Q       Q     Q     Q     Q      
E||-------------------------|-------------------------|-------------------------|-------------------------|
B||-8-----8-8-8-9-----9-9-9-|-8-----8-8-8-9-----9-9-9-|-8-----9-----8-----9-----|-8-----9-----8-----9-----|
G||*------------------------|-------------------------|-------------------------|-------------------------|
D||*------------------------|-------------------------|-------------------------|-------------------------|
A||-------------------------|-------------------------|-------------------------|-------------------------|
E||-10----------9-----------|-10----------9-----------|-10----9-----10----9-----|-10----9-----10----9-----|

    |-3-| |-3-| |-3-| |-3-|   |-3-| |-3-| |-3-| |-3-|
    E E E E E E E E E E E E   E E E E E E E E E E E E  
E||-------------------------|-------------------------|
B||-------------------------|-------------------------|
G||-------------------------|-------------------------|
D||-9-8-7-6-7-8-9-8-7-6-7-8-|-9-8-7-6-7-8-9-8-7-6-7-8-|
A||-------------------------|-------------------------|
E||-9-8-7-6-7-8-9-8-7-6-7-8-|-9-8-7-6-7-8-9-8-7-6-7-8-|

    |-3-| |-3-| |-3-| |-3-|   |-3-| |-3-| |-3-| |-3-|   |-3-| |-3-| |-3-| |-3-|   |-3-| |-3-| |-3-| |-3-|
    E E E E E E E E E E E E   E E E E E E E E E E E E   E E E E E E E E E E E E   E E E E E E E E E E E E  
E||-------------------------|-------------------------|-------------------------|-------------------------|
B||-------------------------|-------------------------|-------------------------|-------------------------|
G||-------------------------|-------------------------|-------------------------|-------------------------|
D||-9-8-7-6-7-8-9-8-7-6-7-8-|-9-8-7-6-7-8-9-8-7-6-7-8-|-9-8-7-6-7-8-9-8-7-6-7-8-|-9-8-7-6-7-8-9-8-7-6-7-8-|
A||-------------------------|-------------------------|-7---------------------7-|-8---------------------8-|
E||-7---------------------7-|-10--------------------10|-------------------------|-------------------------|

    |-3-| |-3-| |-3-| |-3-|   |-3-| |-3-| |-3-| |-3-|   |-3-| |-3-| |-3-| |-3-|   |-3-| |-3-| |-3-| |-3-|
    E E E E E E E E E E E E   E E E E E E E E E E E E   E E E E E E E E E E E E   E E E E E E E E E E E E  
E||-------------------------|-------------------------|-------------------------|-------------------------|
B||-------------------------|-------------------------|-------------------------|-------------------------|
G||-------------------------|-------------------------|-------------------------|-------------------------|
D||-9-8-7-6-7-8-9-8-7-6-7-8-|-9-8-7-6-7-8-9-8-7-6-7-8-|-9-8-7-6-7-8-9-8-7-6-7-8-|-9-8-7-6-7-8-9-8-7-6-7-8-|
A||-------------------------|-------------------------|-7---------------------7-|-8---------------------8-|
E||-7---------------------7-|-10--------------------10|-------------------------|-------------------------|

    |-3-| |-3-| |-3-| |-3-|   |-3-| |-3-| |-3-| |-3-|   |-3-| |-3-| |-3-| |-3-|   |-3-| |-3-| |-3-| |-3-|
    E E E E E E E E E E E E   E E E E E E E E E E E E   E E E E E E E E E E E E   E E E E E E E E E E E E  
E||-------------------------|-------------------------|-------------------------|-------------------------|
B||-------------------------|-------------------------|-------------------------|-------------------------|
G||-9-8-7-6-7-8-9-8-7-6-7-8-|-9-8-7-6-7-8-9-8-7-6-7-8-|-9-8-7-6-7-8-9-8-7-6-7-8-|-9-8-7-6-7-8-9-8-7-6-7-8-|
D||-------------------------|-------------------------|-------------------------|-------------------------|
A||-7---------------------7-|-6---------------------6-|-7---------------------7-|-8---------------------8-|
E||-------------------------|-------------------------|-------------------------|-------------------------|

    |-3-| |-3-| |-3-| |-3-|   |-3-| |-3-| |-3-| |-3-|   |-3-| |-3-| |-3-| |-3-|   |-3-| |-3-| |-3-| |-3-|
    E E E E E E E E E E E E   E E E E E E E E E E E E   E E E E E E E E E E E E   E E E E E E E E E E E E    W 
E||-------------------------|-------------------------|-------------------------|-------------------------||-7-
B||-------------------------|-------------------------|-------------------------|-------------------------||-8-
G||-9-8-7-6-7-8-9-8-7-6-7-8-|-9-8-7-6-7-8-9-8-7-6-7-8-|-9-8-7-6-7-8-9-8-7-6-7-8-|-9-8-7-6-7-8-9-8-7-6-7-8*||-9-
D||-------------------------|-------------------------|-------------------------|------------------------*||-9-
A||-7---------------------7-|-6---------------------6-|-7---------------------7-|-8---------------------8-||-7-
E||-------------------------|-------------------------|-------------------------|-------------------------||---
Login or Register to remove this ad.