Heart of Fire (Castlevania) Guitar Tab

Submitted: Aug 17, 2018 by GuiGi (Last updated: Aug 19, 2018)

5
Average: 5 (2 votes)
Download | No audio :(
Game: Castlevania
Composer(s): Kinuyo Yamashita
Style: Fingerstyle
Series: Castlevania

AutoScroll: Slow | Medium | Fast
90 or 120 BPM
capo 3
the L is the time by you can loop the music



E|---------------------------|---------------------------|---------------------------|
B|---------------------------|---------------------------|---------------------------|
G|---------------------------|---------------------------|-2-------------------------|
D|---------------------------|---------------------------|-2-------------------------|
A|-0--0--0--0--0-------------|-0--0--0--0--0-------------|-0--0--0--0--0-------------|
E|----------------0--0--1--1-|----------------0--0--1--1-|----------------0--0--1--1-|

                                                                                   x2
|-5-------------------------||-0-------------------------|---------------------------||
|-5-------------------------||-------3-----1-----0-------|---------------------------||
|---------------------------||----2-----2-----2-----2----|---------------------------||
|---------------------------||-2-----------------2-------|-2-------------------------||
|-0--0--0--0--0-------------||-0-----------0-------------|-0--0h-2h-3--2---0h-2-0----||
|----------------0--0--1--1-||---------------------------|---------------------------||


|---------------------------|---------------------------||-0-------------------------|
|-----------1---------1-----|-----------3---------3-----||-------3-----1-----0-------|
|------2-----------2--------|------4-----------4--------||----2-----2-----2-----2----|
|-3-------------3-----------|-5-------------5-----------||-2-----------------2-------|
|---------------------------|---------------------------||-0-----0-----0-------------|
|-1----------------1--------|-3----------------3--------||---------------------------|

                          x2
|---------------------------||-----------1---------------|-----------3---------------|
|---------------------------||-----------1---------1-----|-----------3---------3-----|
|---------------------------||------2-----------2--------|------4-----------4--------|
|-2-------------------------||-3-------------3-----------|-5-------------5-----------|
|-0--0h-2h-3--2---0h-2-0----||---------------------------|---------------------------|
|---------------------------||-1----------------1--------|-3----------------3--------|


|---------------------------|------------0---0--2--4---|---0---0---0---0---0---0---0---0-|
|-----------0---------------|-0----3-----0-------------|-----3---1---0---------------0---|
|------2--------------------|------------1-------------|-----------------2---1---2-------|
|-2---------2---------------|----2---2-----------------|---------------------------------|
|-----------2---------------|--------------------------|-0-------------------------------|
|-0------------0---0---0---0|-0----------0-------------|---------------------------------|


|---0---0---0---0---0---0---0---0-|---0---0---0---0---0---0---0---0-|
|-----3---1---0---------------0---|-----3---1---0---------------0---|
|-----------------2---1----2------|-----------------2---1---2-------|
|---------------------------------|---------------------------------|
|---------------------------------|---------------------------------|
|-3-------------------------------|-1-------------------------------|


|----------0---0--------0--0--0--4|---0---0---0---0---0---0---0---0-|
|-----0h-1---3--------------------|-----3---1---0---------------0---|
|---2------2---1------------------|-----------------2---1---2-------|
|----------2---2------------------|-2-----------2-2-----------------|
|---------------------------------|-0---------------0---------------|
|-0------------0--0--0--0---------|---------------------------------|


|---0---0---0---0---0---0---0---0-|---0---0---0---0---0---0---0---0-|
|-----3---1---0---------------0---|-----3---1---0---------------0---|
|-----------------2---1---2-------|-----------------2---1---2-------|
|-2-----------2-2-----------------|-2-----------2-2-----------------|
|---------------------------------|---------------------------------|
|-3---------------3---------------|-1---------------1---------------|


|----------0---0--------0--0--0--4|----------------------------|----------------------------|
|-----0h-1---3--------------------|-1---1---1----1------0------|-1---1---1----1------0------|
|---2------2---1------------------|---4---4----2-----2-----2---|---4---4----2-----2-----2---|
|----------2---2------------------|-2--------------------------|-2--------------------------|
|---------------------------------|-0--------------------------|----------------------------|
|-0------------0--0--0--0---------|------------------------3---|-1----------------------0---|

                                                                                        L
|---------------------------------|-0-----------1--3----0---3-|-5------------------------|
|-1-----------1---3-----0-----3---|-------1-----------------0-|--------------------------|
|-------2-------------------------|----------------0--0---0-0-|-2------------------------|
|-0---0-----0-----2---2-----2-----|-3---3-----3---------------|--------------------------|
|---------------------------------|---------------------------|-0--0--0--0--0------------|
|-----------------0---------------|-1--------------3--------3-|----------------0--0--1--1|


|-0------------------------|
|-1------------------------|
|-2------------------------|
|-2------------------------|
|-0------------------------|
|-0------------------------|
Login or Register to remove this ad.