Ads

Heart of Fire (Castlevania) Guitar Tab

Submitted: Aug 04, 2014 by ltm_1988 (Last updated: Aug 14, 2014)

5
Average: 5 (4 votes)
Download | Listen
Game: Castlevania
Composer(s): Kinuyo Yamashita
Style: Arrangement, Fingerstyle
Series: Castlevania

This song is also called Stage 5

AutoScroll: Slow | Medium | Fast
Heart Of Fire (Stage 5)
Castlevania
Kinuyo Yamashita
ltm_1988
8/3/2014

    E   E   E   E   E   S E   E   S   S S E   E   E   E   S E   E   S
E||---------------------------------|---------------------------------|
B||-1---1---1---1---1---------------|-1-1-1---1---1---1---------------|
G||---------------------0-0-------3-|---------------------0-0-------3-|
D||---------------------------6-----|---------------------------6-----|
A||-3---3---3---3---3-------------1-|-3-3-3---3---3---3-------------1-|
E||---------------------3-3---4-----|---------------------3-3---4-----|

    E   E   E   E   E   S E   E   S   S S E   E   E   E   S E   E   S
E||-------------------------------1-|-3~------------------------------|
B||---------------------------------|---------------------------------|
G||*5~----------------------------3-|-5~------------------------------|
D||*5~------------------------------|---------------------------------|
A||-3---3---3---3---3-------------1-|-3-3-3---3---3---3-------------1-|
E||---------------------3-3---4-----|---------------------3-3---4-----|

    E   E   E   S S E   E   E   E     S S S S E   S S E   E   E   E
E||-3-------1-----------------------|---------------------------------|
B||-1---1---1---1-4-----1---3---1---|---1-3-4-3---1-4-----------------|
G||-----0-------0-5-----0---4---0---|---------------------5---7---5---|
D||-------------------------1---3---|-----0---0---------------0---3---|
A||-3---3---3---3---3---3-----------|-3-3-3-6-3---3-6-3---3---6---3---|
E||---------------------------------|---------------------------------|

    E   E   E   S S E   E   E   E     S S S S E   S S E   E   E   E
E||-3-------1-----------------------|---------------------------------|
B||-1---1---1---1-4-----1---3---1---|---1-3-4-3---1-4-----------------|
G||-----0-------0-5-----0---4---0---|---------------------5---7---5---|
D||-------------------------1---3---|-----0---0---------------0---3---|
A||-3---3---3---3---3---3-----------|-3-3-3-6-3---3-6-3---3---6---3---|
E||---------------------------------|---------------------------------|

    E   S S E   E   E   E   E   E     E   S S E   E   E   E   E   E
E||---------------------------------|-------------1~--------------1---|
B||-------------4~----------1---4---|-------3-----3~----------3---3---|
G||-------5-----5~----------1---5---|-3-----3-------------3---3-------|
D||-6-----6-------------6-----------|-3-------------------3-------0---|
A||-6-------------------6---1---3---|-1---1---1---1---1---1---3-------|
E||-4---4---4---4---4---4-----------|---------------------------------|

    E   E   E   S S E   E   E   E     S S S S E   S S E   E   E   E
E||-3-------1-----------------------|---------------------------------|
B||-1---1---1---1-4-----1---3---1---|---1-3-4-3---1-4-----------------|
G||-----0-------0-5-----0---4---0---|---------------------5---7---5---|
D||-------------------------1---3---|-----0---0---------------0---3---|
A||-3---3---3---3---3---3-----------|-3-3-3-6-3---3-6-3---3---6---3---|
E||---------------------------------|---------------------------------|

    E   E   E   S S E   E   E   E     S S S S E   S S E   E   E   E
E||-3-------1-----------------------|---------------------------------|
B||-1---1---1---1-4-----1---3---1---|---1-3-4-3---1-4-----------------|
G||-----0-------0-5-----0---4---0---|---------------------5---7---5---|
D||-------------------------1---3---|-----0---0---------------0---3---|
A||-3---3---3---3---3---3-----------|-3-3-3-6-3---3-6-3---3---6---3---|
E||---------------------------------|---------------------------------|

    E   S S E   E   E   E   E   E     E   S S E   E   E   E   E   E
E||---------------------------------|-------------1~--------------1---|
B||-------------4~----------1---4---|-------3-----3~----------3---3---|
G||-------5-----5~----------1---5---|-3-----3-------------3---3-------|
D||-6-----6-------------6-----------|-3-------------------3-------0---|
A||-6-------------------6---1---3---|-1---1---1---1---1---1---3-------|
E||-4---4---4---4---4---4-----------|---------------------------------|

    E   S S E   E   E   E   E   E     E   S S E   E   E   E   S S S S
E||---------------------------------|-------1-----3---3---3-----3-5-7-|
B||-------0-----3~------3---3-------|-3-----3-----3---3---3---3-3-3---|
G||-0-------------------------------|-------------------------------7-|
D||-------5-----5~--------------0---|-5---------------------------0---|
A||-5-----------------------3-------|-------------------------3-------|
E||-3---3---3---3---3---3-----------|-3---3---3---3---3---3-----------|

    S S S S S S S S S S S S S S S S   S S S S S S S S S S S S S S S S
E||---3-1-3---3---3---3---3---3---3-|---3-1-3---3---3---3---3---3---3-|
B||-1---1-1-4---3---1---0---1---3---|-1-------4---3---1---0---1---3---|
G||-------------5-------5-5-----5-5-|-----3-3-----3-------3-3-----3-3-|
D||---------------------------------|---------------------------------|
A||-3-------3-------3-------3-3-----|-1---------------1-------1-1-----|
E||---------------------------------|---------6-----------------------|

    S S S S S S S S S S S S S S S S   S S S S E   S S S S S S S S S S
E||---------------------------3-----|-------1-3---1-3---3---3-3---7---|
B||---8-6-8-4-8---8---8-0-8-------8-|---3-4-0-3---3-3---3---3-3-------|
G||-5-----------7---5-------5---7---|---0-4-0-----0-------0-0-----7-0-|
D||-----6-6-----6-------6-6-----6-6-|-----5-----------------------5---|
A||---------------------------------|---------------------------------|
E||-4-------4-------4-------4-4-----|-3-------3-------3-------3-3-----|

    S S S S S S S S S S S S S S S S   S S S S S S S S S S S S S S S S
E||---3-1-3---3---3---3---3---3---3-|---3-1-3---3---3---3---3---3---3-|
B||-1---1-1-4---3---1---0---1---3---|-1-------4---3---1---0---1---3---|
G||-------------5-------5-5-----5-5-|-----3-3-----3-------3-3-----3-3-|
D||---------------------------------|---------------------------------|
A||-3-------3-------3-------3-3-----|-1---------------1-------1-1-----|
E||---------------------------------|---------6-----------------------|

    S S S S S S S S S S S S S S S S   S S S S E   S S S S S S S S S S
E||---------------------------3-----|-------1-3---1-3---3---3-3---7---|
B||---8-6-8-4-8---8---8-0-8-------8-|---3-4-0-3---3-3---3---3-3-------|
G||-5-----------7---5-------5---7---|---0-4-0-----0-------0-0-----7-0-|
D||-----6-6-----6-------6-6-----6-6-|-----5-----------------------5---|
A||---------------------------------|---------------------------------|
E||-4-------4-------4-------4-4-----|-3-------3-------3-------3-3-----|

    S S S S E   S S E   E   E   E     S S S S E   S S E   E   E   E
E||---------------------------------|---------------------------------|
B||-4-3-4-3-4---1-4~----1---3---1---|-4-3-4-3-4-----4~--------3---1---|
G||-5~--------------------------3---|-------------5-------5---0-------|
D||---------------------------------|-6~------------------------------|
A||-3---3---3---3---3---3---3---1---|---------------------------------|
E||---------------------------------|-4---4---4---4---4---4---3---3---|

    E   S S E   E   E   S S E   E     E   S S E   E   E   S S E   E
E||-----------------1-----------1---|-3-----------3---6-----4-----6---|
B||-4-----1-----4---------3---------|-------6-------------------------|
G||-----------------0---------------|---------------------------------|
D||-3~------------------------------|-6~--------------8~--------------|
A||---------------------------------|---------------------------------|
E||-1---1---1---1---3---3---3---3---|-4---4---4---4---6---6---6---6---|

    E   E   E   E   E   S E   E   S   S S E   E   E   E   S E   E   S x3 W
E||-3~------------------------------|---------------------------------||-3-
B||-1~------------------------------|---------------------------------||-4-
G||---------------------------------|--------------------------------*||-5-
D||---------------------------------|--------------------------------*||-5-
A||-3---3---3---3---3-------------1-|-3-3-3---3---3---3-------------1-||-3-
E||---------------------3-3---4-----|---------------------3-3---4-----||---
Login or Register to remove this ad.

1 comment on Heart of Fire

That's awesome. it's one of

5

That's awesome. it's one of my favorite musics in Castlevania series but it's way too complicated to play Lol. Can someone simplify that? I want toooooo much to play it. Congrats for those who upload and played it.