Ads

Black Night (Castlevania) Guitar Tab

Submitted: Oct 14, 2011 by BacardiBreezer

0
Download | Listen
Game: Castlevania
Composer(s): Kinuyo Yamashita
Style: 2 or more instruments, Alternate picking, Transcription
Series: Castlevania

AutoScroll: Slow | Medium | Fast
Black Night
Castlevania
Composer: Kinuyo Yamashita
Tabbed by Bacardibreezer
10/12/11

Guitar 1

e|-------------------------------------|
B|-------------------------------------|
G|-------------------------------------|
D|--8-8-8--9-9-9--10-10-10--11-11-11---|
A|-------------------------------------|
E|-------------------------------------| 

e|------------------------|------------------------|
B|------------------------|--------------8---------|
G|------7--8----10--8--7--|------7--8-------10--8--|
D|--10--------------------|--10--------------------|
A|------------------------|------------------------|
E|------------------------|------------------------| 

e|------------------------|------------------------|
B|--------------8---------|--------------9--8------|
G|--7--9--10-------10--8--|--7--9--10----------10--|
D|------------------------|------------------------|
A|------------------------|------------------------|
E|------------------------|------------------------| 

e|------------------------|------------------------|
B|---------8----9--8------|---------8----11--9--8--|
G|--8--10-------------10--|--8--10-----------------|
D|------------------------|------------------------|
A|------------------------|------------------------|
E|------------------------|------------------------| 

e|------------------------|--------------8----------|
B|------8--9----11--9--8--|------9--8-------11--9---|
G|--10--------------------|--10---------------------|
D|------------------------|-------------------------|
A|------------------------|-------------------------|
E|------------------------|-------------------------| 

e|--8---7-6---5-------------------------|
B|--------------9-8----7---6------------|
G|---------------------------9---8-7-6--|
D|--------------------------------------|
A|--------------------------------------|
E|--------------------------------------| 

If repeating start at second measure.





Guitar 2

e|-------------------------------|
B|--8-8-8--8-8-8--8-8-8--8-8-8---|
G|-------------------------------|
D|-------------------------------|
A|-------------------------------|
E|-------------------------------| 

e|--8-11-8-11-8-11-8-11-8-11-8-11-8-11-8-11--|
B|-------------------------------------------|
G|-------------------------------------------|
D|-------------------------------------------|
A|-------------------------------------------|
E|-------------------------------------------| x2

e|--10-13-10-13-10-13-10-13-10-13-10-13-10-13-10-13--|
B|---------------------------------------------------|
G|---------------------------------------------------|
D|---------------------------------------------------|
A|---------------------------------------------------|
E|---------------------------------------------------| x2

e|--11-15-11-15-11-15-11-15-11-15-11-15-11-15-11-15--|
B|---------------------------------------------------|
G|---------------------------------------------------|
D|---------------------------------------------------|
A|---------------------------------------------------|
E|---------------------------------------------------| x2

e|--13-16-13-16-13-16-13-16-13-16-13-16-13-16-13-16--|
B|---------------------------------------------------|
G|---------------------------------------------------|
D|---------------------------------------------------|
A|---------------------------------------------------|
E|---------------------------------------------------| x2

e|--------------------------------------------------|
B|--13---12-11---10---------------------------------|
G|------------------13-12----11---10----------------|
D|-----------------------------------14---13-12-11--|
A|--------------------------------------------------|
E|--------------------------------------------------|
Login or Register to remove this ad.