All Clear (Castlevania) Bass/Guitar Tab

Submitted: Nov 21, 2014 by BonePillar

4
Average: 4 (4 votes)
Download | Listen
Game: Castlevania
Composer(s): Kinuyo Yamashita
Style: 2 or more instruments, Transcription
Series: Castlevania

AutoScroll: Slow | Medium | Fast
All Clear


Lead

|----------------------------------------9-10-|
|--------8-10-----------8------8-8-10-10------|
|-7-9-10------9-6-6-7-9---10-7----------------|
|---------------------------------------------|
|---------------------------------------------|
|---------------------------------------------|


Harmony

|----10------9-12-10-------10-9-13-12-15-13-|
|-10----11-8---------10-11------------------|
|-------------------------------------------|
|-------------------------------------------|
|-------------------------------------------|
|-------------------------------------------|


Bass

|----7----7----7----7-|----7----7----7----7-|----7----7----7----7-|---9---9-|-----|
|---------------------|---------------------|---------------------|---------|-----|
|-5----5----5----5----|-5----5----5----5----|-5----5----5----5----|-7---7---|---5-|
|---------------------|---------------------|---------------------|---------|-5---|
Login or Register to remove this ad.

4 comments on All Clear

Okay, I'm really sick of the

Okay, I'm really sick of the useless rating system on this site. What jackass gave one star to every one of BonePillar's tabs? The same person who rates all of corntastic's one star? The rhythm might not be reflected well, but I know for a fact that every note is correct on each Castlevania tab of his.

We should have some way of

We should have some way of tying ratings to a person's profile so that when people abuse the rating system like this, we can bring the banhammer down on them swift and hard.

I kinda think we should just

I kinda think we should just have thumbs up or something.

we should elect officials to

we should elect officials to vote for us so we dont have to