Ads

Wood Carving Partita (Castlevania: Symphony of the Night) Guitar Tab

Submitted: May 04, 2011 by auriplane (Last updated: May 04, 2011)

5
Average: 5 (14 votes)
Download | Listen
Game: Castlevania: Symphony of the Night
Composer(s): Michiru Yamane
Style: Arrangement, Fingerstyle, Trill
Series: Castlevania

AutoScroll: Slow | Medium | Fast
             Symphony of the Night - Wood Carving Partita
                     Composed by Michiru Yamane

          Arranged & tabbed by Auriplane ([email protected])


                                                     E.   S Q
Standard tuning, no capo.                            ---------------|
                                                     ---------------|
                                                     ---------------|
                                                     5----5-5-------|
        Part A                                       ---------------|
                                                     ---------------|

   ^                                ^
   Q       S S S S S S S S S S S S  Q       S S S S S S S S S S S S
e |--------------------------------|3-------------------------------|
B |4---------------------3-4-3-4-6-|3---------------------3-4-3-4-6-|
G |5-----------2-4-5-4-5-----------|4-----------2-4-5-4-5-----------|
D |5---------5---------------------|----------5---------------------|
A |3-------3---------------3-------|2-------2---------------2-------|
E |--------------------------------|--------------------------------|


   S S S S S S S S S S S S S S S S  S S S S S S S S S S S S S S S S
e |0---8---8---8---8---------------|----3---3---3---5---------------|
B |--------------------6---6---6---|4-------------------3---3-------|
G |--5---5---5---5---5---5---5---5-|--5---5---5---5-------------5---|
D |--------------------------------|------------------4---4---4---4-|
A |--------------------------------|--------------------------------|
E |6---------------4---------------|3---------------2---------------|

   ^                                ^
   Q       S S S S S S S S S S S S  Q       S S S S S S S S S S S S
e |3-------------------------------|3-----------------------------3-|
B |3---------------------3-4-3-4-6-|4---------------------3-4-3-4---|
G |4-----------2-4-5-4-5-----------|5-----------2-4-5-4-5-----------|
D |----------5---------------------|----------5---------------------|
A |--------------------------------|--------------------------------|
E |3-------3---------------3-------|3-------3---------------3-------|

   ^
   Q       S S S S S S S S S S S S  E   E   E   E   E   E   E   E
e |2-----------------------5---5-8-|7---3-------3---3---3-------2---|
B |3---------------4---4-7---7-----|--------------------------------|
G |2-----------2-5---5-------------|0-------0-------0---------------|
D |----------4---------------------|--------------------------------|
A |--------------------------------|--------2---2---3---3-----------|
E |3-------3---------------3-------|3---3-------------------4---4---|

                               ^    ^       ^
   E   E   E   E   E   E   E   E    Q       H.
e |3---3-------3---3---3-------8---|7-------3-----------------------|
B |----------------------------7---|0-------3-----------------------|
G |0-------0-------0---------------|0-------4-----------------------|
D |--------------------------------|--------------------------------|
A |--------2---2---3---3-----------|--------------------------------|
E |3---3-------------------4---4---|3-------3-----------------------|


        Part B

   ^
   E   E   E   E   E   S S S S S S  E   E   E   E   E   E   E   E
e |--------------------------------|--------------------------------|
B |4-------------------3-4-6-4-3---|--------------------------------|
G |5---------------5-------------5-|5---4---4-------L-----------2---|
D |5-----------5-------------------|5-----------4---5---6---5---3---|
A |----3---6-----------------------|--------------------------------|
E |--------------------------------|--------------------------------|


   E   E   E   E   E   S S S S S S  E   E   E   E   E   E   E   E
e |--------0---3---6---8-6-------0-|3---1---1-----------------------|
B |----1-------------------9-8-6---|--------------------------------|
G |3-------------------------------|--------------------0-----------|
D |2-------------------------------|3-----------2---3-------3---1---|
A |--------------------------------|--------------------------------|
E |----------------8---------------|--------------------------------|


   E   E   E   E   E   S S S S S S  E   E   E   E   E   S S S S S S
e |1---3---4-----------3-4-6-4-3---|------------------------1-------|
B |------------------------------6-|6---4---4-----------3-4---4-3-1-|
G |--------------------------------|----------------------------0---|
D |0-------------------------------|--------------------0---1-------|
A |------------3---2---------------|3-----------2---3---------------|
E |------------------------3-------|--------------------------------|


   S S E   E   E   E   S S S S S S  E   S S E   E   Q       Q
e |--------------------------------|--------------------------------|
B |1-3-4---L-----------3-4-6-4-3---|----0---0-----------------------|
G |2-----------0-----------------5-|5-----2---------0---------------|
D |----------------4-------0-------|------------0-------------------|
A |--------------------------------|--------2-----------------------|
E |--------------------------------|3---3-------------------3-------|


        Part B' (variation)


   E   E   E   E   E   S S S S S S  E   E   E   E   E   E   E   E
e |--------------------------------|----3---3-------L---------------|
B |4-------------------3-4-6-4-3---|--------------------------------|
G |5---------------5-------------5-|5---4---4-------L-----------2---|
D |------------5-------------------|5-----------4---5---6---5---3---|
A |----3---6-----------------------|--------------------------------|
E |--------------------------------|--------------------------------|


   E   E   E   E   E   S S S S S S  E   E   E   E   E   E   E   E
e |--------0---3---6---8-6-------0-|3---1---1-----------------------|
B |----1-------------------9-8-6---|--------------------------------|
G |3-------------------------------|--------------------0-----------|
D |2-------------------------------|3-----------2---3-------3---1---|
A |--------------------------------|--------------------------------|
E |----------------8---------------|--------------------------------|


   E   E   E   E   E   S S S S S S  E   E   E   E   E   S S S S S S
e |1---3---4-----------3-4-6-4-3---|------------------------1-------|
B |------------------------------6-|6---4---4-----------3-4---4-3-1-|
G |--------------------------------|----------------------------0---|
D |0-------------------------------|--------------------0---1-------|
A |------------3---2---------------|3-----------2---3---------------|
E |------------------------3-------|--------------------------------|


   S S E   E   E   E   S S S S S S  E   E   E   E   Q       Q
e |--------------------------------|--------------------------------|
B |1-3-4---L-----------3-4-6-4-3---|--------0-----------------------|
G |2-----------0-----------------5-|5---------------0---------------|
D |----------------4-------0-------|------------0-------------------|
A |--------------------------------|--------2-----------------------|
E |--------------------------------|3---3-------------------3-------|


        Part C


   S S S S S S S S S S S S S S S S  S S S S S S S S S S S S S S S S
e |----3---------------3-----------|----3---------------3-----------|
B |1-------4---3---1-------4---3---|1-------4---3---1-------4---3---|
G |--0---0---0---0---0---0---0---0-|--0---0---0---0---0---0---0---0-|
D |--------------------------------|--------------------------------|
A |3-------3---------------3-------|1-------1---------------1-------|
E |--------------------------------|--------------------------------|


   S S S S S S S S S S S S S S S S  S S S S S S S S S S S S S S S S
e |----3---------------3-----------|--------1-----------------------|
B |1-------4---3---1-------4---1---|1-3-4-3---4-3-1-0-1-3-1-0-----0-|
G |--0---0---0---0---0---0---0---0-|--------------------------0-2---|
D |--------------------------------|--------------------------------|
A |0-------0---------------0-------|--------------------------------|
E |--------------------------------|1---------------3---------------|


   S S S S S S S S S S S S S S S S  S S S S S S S S S S S S S S S S
e |--3---3---3---3---3---3---3---3-|--3---3---3---3---3---3---3---3-|
B |----3---4-----------3---4-------|----3---4-----------3---4-------|
G |5-----------5---5-----------5---|5-----------5---5-----------5---|
D |--------------------------------|--------------------------------|
A |3-------3---------------3-------|--------------------------------|
E |--------------------------------|6-------6---------------6-------|


   S S S S S S S S S S S S S S S S  S S E   S S E   S S E   S S E
e |--3---3---3---3---3---3---3---3-|----1---1-3-4-------------------|
B |----3---4-----------3---4-------|3-4-----------------0---0-1-3---|
G |5-----------5---5-----------5---|----------------0-2-------------|
D |--------------------------------|0-------------------------------|
A |--------------------------------|--------------------------------|
E |5-------5---------------5-------|----------------3---------------|


        Now, play parts B, B', and C again before continuing.
        Part D

   ^
   Q       Q       E   S S S S S S  E   E   E   E   E   S S S S S S
e |3---------------L---4-6-4-3-----|3---1---1-----------3-4-3-1-----|
B |4---------------------------6-4-|----------------------------4-3-|
G |3---------------L---------------|--------------------------------|
D |--------------------------------|0-------------------------------|
A |6-------6---------------6-------|------------3---1-------2-------|
E |--------------------------------|--------------------------------|


   Q        Q      E   S  S  E  E   E   E   Q       E   S S S S S S
e |---------11-----L---10-11-10-8--|8---7---6-----------8-9-8-6-4-3-|
B |4-------------------------------|--------------------------------|
G |--------------------------------|--------------------------------|
D |---------8------7---------------|--------------------------------|
A |3-------------------------9-----|--------------------------------|
E |--------------------------------|3---------------0---------------|


   E   E   E   E   S S S S S S S S  S S E   Q       E   S S S S S S
e |4-------3-------1-3-4-3-1-------|------------------------1-------|
B |----1---------------------4-3-1-|1-3-4---L-----------3-4---4-3-1-|
G |--------------------------------|--------------------------------|
D |--------------------------------|--------------------------------|
A |--------------------------------|--------------------------------|
E |1---1---3---3---4---------------|3-----------------------3-------|


   E   E   Q       E   S S S S E    E   S S Q       E   S S Q
e |--------------------------------|--------------------------------|
B |1-------3-----------1-3-4-3-1---|1---3-1-1tr3----1---0---0-------|
G |--------------------------------|----------------------2---------|
D |----3---------------------------|--------------------------------|
A |--------------------------------|--------------------------------|
E |3-----------------------3-------|3-----------------------3-------|


        Now play Part A one last time, and you're done.


Duration Legend
---------------
W - whole
H - half
Q - quarter
E - 8th
S - 16th
. - note dotted


Tablature Legend
----------------
L - tied note
tr - trill

Login or Register to remove this ad.

6 comments on Wood Carving Partita

<3 SotN

5

<3 SotN

Also, my fingers are wrecked.

5

Also, my fingers are wrecked.

Parhelion said Also, my

Parhelion said

Also, my fingers are wrecked.

Haha, I'm sorry! XD Love the four-string snail :-D

This is awesome, a classic

5

This is awesome, a classic SOTN song, and you did a great job arranging it. also it did not take you long at all. wonderful snail skills. really, thank you for this, it's nice to finally hear this on guitar :)

what an amazing

5

what an amazing interpretation !

I really like this =)

5

I really like this =)