Marble Gallery (Castlevania: Symphony of the Night) Guitar Tab

Submitted: Nov 14, 2011 by manyth

5
Average: 5 (7 votes)
Download | Listen
Game: Castlevania: Symphony of the Night
Composer(s): Michiru Yamane
Style: Arrangement, Fingerstyle
Series: Castlevania

AutoScroll: Slow | Medium | Fast
Marble Gallery
from Castlevania Symphony Of The Night
composed by Michiru Yamane
tabbed by manyth


      E  E   E   E  E   E      E  E   E  E   E  E      E  E   E   E  E   E   
E||---0------0---0------0--|--10------9-----12-----|---0------0---0------0--|
B||--12-----12--12-----12--|--12-----10-----10-----|--12-----12--12-----12--|
G||--12-----12--12-----12--|--12-----12-----12-----|--12-----12--12-----12--|
D||------------------------|-----------------------|------------------------|
A||------------------------|-----------------------|------------------------|
E||---0-----------------L--|-----------------------|---0-----------------L--|


   E  E   E  E   E  E       E  E  E  Q    E     Q    E  E  E  E   
--10------9-----12-----||---7----------------|----------0--------|
--12-----10-----10-----||------8-----7-------|-------------------|
--12-----12-----12-----||*--------8----------|-------------0--2--|
-----------------------||*-------------------|-------------------|
-----------------------||--------------------|-------------------|
-----------------------||---0--------L----0--|--0----7--0--------|


  H        E  E     Q    E  E  Q       E  E  E  Q    E     E  E  E  E  E  E   
-----------------|------------------|-------------------|--1-----------------|
-----------------|------------------|-----------7----L--|--------1-----------|
--3--------------|-------0----------|--------3----------|--------------2-----|
-----------------|------------------|--4--6-------------|--------------------|
--3-----------3--|--3-------3-------|--------4----------|--------3-----------|
-----------------|-------------3----|--2-------------2--|--1--------------1--|


  E  E   E   E  E   E      E  E   E  E   E  E     E  E  E  Q    E   
-----0---0---0------0--|--10------9-----12-----|--7----------------|
--------12--12-----12--|--12-----10-----10-----|-----8-----7-------|
--0-----12--12-----12--|--12-----12-----12-----|--------8----------|
-----------------------|-----------------------|-------------------|
-----------------------|-----------------------|-------------------|
--0--------------------|-----------------------|--0--------L----0--|


  Q    E  E  E  E     H        E  E     Q    E  E  Q       Q    E  Q    E   
----------0--------|-----------------|------------------|--2-------2-------|
-------------------|-----------------|------------------|-------2----------|
-------------0--2--|--3--------------|-------0----------|------------------|
-------------------|-----------------|------------------|------------------|
-------------------|--3-----------3--|--3-------3-------|-------4----------|
--0----7--0--------|-----------------|-------------3----|--2------------2--|


  E  E  E  E  E  E     E  E   E   E  E   E      E  E   E  E   E  E   
--1-----------------|-----0---0---0------0--|--10------9-----12-----|
--------1-----------|--------12--12-----12--|--12-----10-----10-----|
--------------2-----|--0-----12--12-----12--|--12-----12-----12-----|
--------------------|-----------------------|-----------------------|
--------3-----------|-----------------------|-----------------------|
--1--------------1--|--0--------------------|-----------------------|


   E  E   E   E  E   E      E  E   E  E   E  E     E  E   E  Q    E   
---0------0---0------0--|--10------9-----12-----|--8--7--10--8-------|
--12-----12--12-----12--|--12-----10-----10-----|--------------------|
--12-----12--12-----12--|--12-----12-----12-----|--------------------|
------------------------|-----------------------|--------------------|
------------------------|-----------------------|--0---------L----0--|
---0--------------------|-----------------L-----|--------------------|


  Q    E  E  Q       E  E   E  Q    E     Q    E  Q    E     Q    E  E  Q     
------------------|--8--7--10--8-------|------------------|--7----3-----0----|
------------------|--------------------|------------------|------------------|
------------------|--------------------|------------------|------------------|
------------------|--------------------|------------------|------------------|
--0-------0-------|--0---------L----0--|--0----3--2----0--|------------------|
-------0-----0----|--------------------|------------------|--3-------3-------|


  H        E  E     Q.     E  E  E     H        Q        E  E   E   E  E   E   
--6--------------|--5---------------|----------------|---0------0---0------0--|
-----------------|------------------|----------------|--12-----12--12-----12--|
-----------------|------------------|----------------|--12-----12--12-----12--|
-----------------|------------------|----------------|------------------------|
-----------------|---------2--3-----|----------------|------------------------|
--2--------3--2--|--1------------4--|--5--------1----|---0-----------------L--|


   E  E   E  E   E  E      E  E   E   E  E   E      E  E   E  E   E  E   
--10------9-----12-----|---0------0---0------0--|--10------9-----12-----|
--12-----10-----10-----|--12-----12--12-----12--|--12-----10-----10-----|
--12-----12-----12-----|--12-----12--12-----12--|--12-----12-----12-----|
-----------------------|------------------------|-----------------------|
-----------------------|------------------------|-----------------------|
-----------------------|---0-----------------L--|-----------------------|


  higher part                                                      
  E           E  E  Q    E     Q    E  E  E  E     H        E  E   
--7-------------------------|----------0--------|-----------------|
--------------8-----7-------|-------------------|-----------------|
-----------------8----------|-------------0--2--|--3--------------|
----------------------------|-------------------|-----------------|
----------------------------|-------------------|--3-----------3--|
--0-----------------L----0--|--0----7--0--------|-----------------|


  Q    E  E  Q       Q    E  Q    E     E  E  E  E  E  E   
------------------|--2-------2-------|--1-----------------|
------------------|-------2----------|--------1-----------|
-------0----------|------------------|--------------2-----|
------------------|------------------|--------------------|
--3-------3-------|-------4----------|--------3-----------|
-------------3----|--2------------2--|--1--------------1--|


  E  E   E   E  E   E      E  E   E  E   E  E     E  E  E  Q    E   
-----0---0---0------0--|--10------9-----12-----|--7----------------|
--------12--12-----12--|--12-----10-----10-----|-----8-----7-------|
--0-----12--12-----12--|--12-----12-----12-----|--------8----------|
-----------------------|-----------------------|-------------------|
-----------------------|-----------------------|-------------------|
--0--------------------|-----------------------|--0--------L----0--|


  Q    E  E  E  E     H        E  E     Q    E  E  Q       Q    E  Q    E   
----------0--------|-----------------|------------------|--2-------2-------|
-------------------|-----------------|------------------|-------2----------|
-------------0--2--|--3--------------|-------0----------|------------------|
-------------------|-----------------|------------------|------------------|
-------------------|--3-----------3--|--3-------3-------|-------4----------|
--0----7--0--------|-----------------|-------------3----|--2------------2--|


  E  E  E  E  E  E     E  E   E   E  E   E      E  E   E  E   E  E   
--1-----------------|-----0---0---0------0--|---8------8------8-----|
--------1-----------|--------12--12-----12--|--10-----10-----10-----|
--------------2-----|--0-----12--12-----12--|--10-----10-----10-----|
--------------------|-----------------------|-----------------------|
--------3-----------|-----------------------|-----------------------|
--1--------------1--|--0--------------------|-----------------------|


   E  E   E   E  E   E      E  E   E  E   E  E     E  E   E  Q    E   
---9------9---9------9--|--10-----10-----10-----|--8--7--10--8-------|
--11-----11--11-----11--|--12-----12-----12-----|--------------------|
--11-----11--11-----11--|--12-----12-----12-----|--------------------|
------------------------|-----------------------|--------------------|
------------------------|-----------------------|--0---------L----0--|
------------------------|-----------------------|--------------------|


  Q    E  E  Q       E  E   E  Q    E     Q    E  Q    E     Q    E  E  Q     
------------------|--8--7--10--8-------|------------------|--7----3-----0----|
------------------|--------------------|------------------|------------------|
------------------|--------------------|------------------|------------------|
------------------|--------------------|------------------|------------------|
--0-------0-------|--0---------L----0--|--0----3--2----0--|------------------|
-------0-----0----|--------------------|------------------|--3-------3-------|


  H        E  E     Q.     E  E  E     H        Q        E  E   E   E  E   E   
--6--------------|--5---------------|----------------|---0------0---0------0--|
-----------------|------------------|----------------|--12-----12--12-----12--|
-----------------|------------------|----------------|--12-----12--12-----12--|
-----------------|------------------|----------------|------------------------|
-----------------|---------2--3-----|----------------|------------------------|
--2--------3--2--|--1------------4--|--5--------1----|---0-----------------L--|


   E  E   E  E   E  E      E  E   E   E  E   E      E  E   E  E   E  E   
--10------9-----12-----|---0------0---0------0--|--10------9-----12-----|
--12-----10-----10-----|--12-----12--12-----12--|--12-----10-----10-----|
--12-----12-----12-----|--12-----12--12-----12--|--12-----12-----12-----|
-----------------------|------------------------|-----------------------|
-----------------------|------------------------|-----------------------|
-----------------------|---0-----------------L--|-----------------------|


  E  E  Q.     E     Q    Q    Q       E  E   Q.     E     Q    E  Q    E   
--7--8--0---------|-----------------|--7--8--10---------|------------------|
------------------|-----------------|-------------------|------------------|
------------------|-----------------|-------------------|------------------|
------------------|-----------------|-------------------|------------------|
--0-----L------0--|--0---------0----|--0------L------0--|--0----3--2----0--|
------------------|-------0---------|-------------------|------------------|


   E   E   Q.     E     Q    E  Q    E      E   E   Q.     E   
--12--13-------------|------------------|--12--13--15------L--|
----------10---------|------------------|---------------------|
---------------------|------------------|---------------------|
---0-------L------0--|--0----3--2----0--|---0--------------0--|
---------------------|------------------|---------------------|
---------------------|------------------|---------------------|


  Q    E  Q    E     E  E  Q.     E     Q    E  Q    E     E  E  H         
------------------|--5--6------------|------------------|--5--6--8--------|
------------------|--------3------L--|------------------|-----------------|
------------------|--0------------0--|--0----3--2----0--|-----------------|
--0----3--2----0--|------------------|------------------|-----------------|
------------------|------------------|------------------|--0-----L--------|
------------------|------------------|------------------|-----------------|


  E  E  E  E  E  E     E  E  E  E  E  E     E  E  E  E  E  E   
--6-----6-----6-----|--------0--5--4--0--|--3-----2-----1-----|
--3-----3-----3-----|-----2--------------|-----4-----3-----2--|
--3-----3-----3-----|--2-----------------|--------------------|
--------------------|--------------------|--------------------|
--------------------|--------------------|--------------------|
--------------------|--------------------|--------------------|


  E  E  E  E  E  E     E  E  E  E  E  E     E   E  E   E   E   E   
--------0--5--4--0--|--3-----2-----1-----|---------9--12--11------|
-----2--------------|-----4-----3-----2--|-----10-------------12--|
--2-----------------|--------------------|--9---------------------|
--------------------|--------------------|------------------------|
--------------------|--------------------|------------------------|
--------------------|--------------------|------------------------|


   E   E  E   E  E  E     E  E  E  E  E  E     E  E  E  E  E  E         
--10------9------8-----|--5-----5-----5-----|--5-----5--5-----5--|-----|
------11-----10-----9--|--------------------|--5-----5--5-----5--|-----|
-----------------------|--------------------|--5-----5--5-----5--|-----|
-----------------------|--7-----7-----7-----|--7-----7--7-----7--|-----|
-----------------------|--------------------|--7-----7--7-----7--|-----|
-----------------------|--5-----5-----5-----|--5-----5--5-----5--|-----|


  S S S S S S S S S S S S S S S S                
-----------------------------------||----|-----||
-----------------------------------||----|-----||
----------------------------------*||----|-----||
----------------------------------*||----|-----||
--0-0-0---2-------0----------------||----|-----||
--0-0-0-------0-------0---0---0----||----|-----||




Duration Legend
---------------
W - whole
H - half
Q - quarter
E - 8th
S - 16th
T - 32nd
X - 64th
. - note dotted
|-n-|  - n-tuplets


Tablature Legend
----------------
L - tied note
x - dead note
g - grace note
(n) - ghost note
> - accentuded note
NH - natural harmonic
AH - artificial harmonic
TH - tapped harmonic
SH - semi harmonic
PH - pitch harmonic
h - hammer on
p - pull off
b - bend
br - bendRelease
pb - preBend
pbr - preBendRelease
brb - bendReleaseBend
\n/ - tremolo bar dip
\n - tremolo bar dive
-/n - tremolo bar Release up
/n\ - tremolo bar inverted dip
/n - tremolo bar return
-\n - tremolo bar Release down
S - shift slide
s - legato slide
/ -  slide into from below or out of upwards
\ -  slide into from above or out of downwards
~ - vibrato
W - wide vibrato
tr - trill
TP - tremolo picking
T - tapping
S - slap
P - pop
< - fade in
^ - brush up
v - brush down
Login or Register to remove this ad.

4 comments on Marble Gallery

I'm interested in this...

5

Great job! I didn't expect to see a fingerstyle tab when clicking this but I was happily surprised. Fun to play and it made my day to see this particular song tabbed out. Hope to see more tabs from you.

@Luminaire271

Thank you so much !
I like your love song a lot!
I'll try my best on tabbing maybe dance of pales ,.. next time =)

Wonderful Tab

5

I really enjoyed this way more than I expected to, and Dance of Pales. I always complicate my arrangements by trying to do ALL of the original notes, or as many as possible, but this is very straight forward and comfortable on my hands, and best of all, you got it right, and it's a clever arrangement. It sounds dead on. You saved me the time of doing this one on my own. Thank you.

Minor correction

5

I think in bar 6 the bass notes should be in the same rhythm as bar 2. The 3rd bass note should be played with the 2nd melody note, not the 1st. That's how I hear it in the original track and it would make sense considering the whole song has the rhythm of bars 1 and 2.

Great arrangement anyway!