Lost Painting (Castlevania: Symphony of the Night) Guitar Tab

Submitted: Apr 13, 2019 by Emi

5
Average: 5 (2 votes)
Download | Listen
Game: Castlevania: Symphony of the Night
Composer(s): Michiru Yamane
Style: Arrangement, Fingerstyle
Series: Castlevania

Click here for a video example.

AutoScroll: Slow | Medium | Fast
Title: Lost Painting
SubTitle: Castlavania : Symphony of the Night
Artist: Michiru Yamane
Arranged by Emilien Delcour
Tempo = 100
Classical Guitar

     ^           ^                                                      
E |--2--------2----------------|----------------------------|----------|
B |--2-----5-----2-------------|--------0--------0--0-------|----------|
G |--2-----------2-------------|--------------2-----4-------|--1-------|
D |--4-----2-----4-------------|--4-----------------2-------|-----2----|
A |--------------4-------------|--5-------------------------|----------|
E |----------------------------|----------------------------|--0--4----|

                                                          
-----9--8-----7-----6-------|-----9--8-----7-----6-------|
--7--------10----9-----8----|--7--------10----9-----8----|
----------------------------|----------------------------|
----------------------------|----------------------------|
----------------------------|----------------------------|
----------------------------|----------------------------|

                                                          
-----9--8-----7-----6-------|-----9--8-----7-----6-------|
--7--------10----9-----8----|--7--------10----9-----8----|
----------------------------|----------------------------|
----------------------------|----------------------------|
----------------------------|----------------------------|
----------------------------|----------------------------|

              ^                                           
--------2-----9-------------|-----------9--5-----4-------|
--------------9-------------|--------12-------------0----|
-----2-----2--9-----9-------|-----------------6----------|
-----------------9----------|-----9----------------------|
-----------------------11---|--------------4-------------|
--2-----------0-------------|--10------------------------|

  ^                            ^                          
--2-----4--5--4-----0-------|--2-------------------------|
--3-----------------2-------|--2-----------2-------------|
--4--------------1----------|--2--------2-----2----------|
--4--4-----------------2----|--4-----6-----------6-------|
--2-----4-------------------|--4--4-----------------4----|
--------------0-------------|--2-------------------------|

              ^                                           
--------2-----9-------------|-----------9--5-----4-------|
--------------9-------------|--------12-------------0----|
-----2-----2--9-----9-------|-----------------6----------|
-----------------9----------|-----9----------------------|
-----------------------11---|--------------4-------------|
--2-----------0-------------|--10------------------------|

  ^                            ^                          
--2-----4--5--7-----0-------|--2-------------------------|
--3--------------------0----|--2-----------2-------------|
--4-------------------------|--2--------2-----2----------|
--4--4--------------6-------|--4-----6-----------6-------|
--2-----4--------7----------|--4--4-----------------4----|
--------------0-------------|--2-------------------------|

  ^                                                       
----------------------------|----------------------------|
--2-----0--------------0----|--2-------------------------|
--1-----------------2-------|--2-----1-----1-------------|
--2--------------4----------|--4-----2-----2-----2-------|
--0--2--------2-------------|-----4-----4--------2-------|
-----------0----------------|-----------------0-----0----|

  ^                                                       
----------------------------|--------0-------------------|
--2-----0--------------0----|--2--------0--3--------0----|
--1-----------------2-------|--1-----------4-----6-------|
--2--------------4----------|--2--2--------0--4----------|
--0--2--------2-------------|----------------------------|
-----------0----------------|----------------------------|

  ^                                  ^                    
--------------------4--5----|--4-----0-----0-------------|
--7-------------------------|-----0--2--0-----0-----0----|
--6-----6--------6----------|--------1-----------2-------|
--7--7-----0----------------|--------2-------------------|
--------------7-------------|--4-----------2-------------|
----------------------------|----------------------------|

  ^                                                       
--------------------4--5----|--9-------------------------|
--7-------------------------|--------9-----9-------------|
--6-----6--------6----------|--------9-----9-------------|
--7--7-----0----------------|-----9-----11---------------|
--------------7-----4-------|----------------------------|
----------------------------|--0-----------------0-------|

                                                          
--9-----7--9--5-------------|--5-----7-----4-------------|
-----------------------7----|-----------------------5----|
--------------------7-------|--------------------6-------|
--0-----------------7-------|--------------------6-------|
-----------------7----------|-----------------4----------|
--------------5-------------|--------------4-------------|

  ^                                                   
--4-------------------------|-----------2----|--2----|
--5-------------------------|--------2-------|-------|
--6-----------2-----4--2----|--1-------------|-------|
--6-------------------------|----------------|-------|
--------------0-----2--0----|----------------|-------|
----------------------------|--4-------------|-------|

              ^                                           
--------2-----9-------------|-----------9--5-----4-------|
--------------9-------------|--------12-------------0----|
-----2-----2--9-----9-------|-----------------6----------|
-----------------9----------|-----9----------------------|
-----------------------11---|--------------4-------------|
--2-----------0-------------|--10------------------------|

  ^                            ^                          
--2-----4--5--4-----0-------|--2-------------------------|
--3-----------------2-------|--2-----------2-------------|
--4--------------1----------|--2--------2-----2----------|
--4--4-----------------2----|--4-----6-----------6-------|
--2-----4-------------------|--4--4-----------------4----|
--------------0-------------|--2-------------------------|

  ^                 ^                                     
--------------------0-------|----------------------------|
--2-----------2-----2-------|--------4-----------0-------|
--2--------4--------2-------|--------4-----------1-------|
--4-----------------2-------|-----------------------1----|
--4-----4-----------0-------|--0-----------2-------------|
--2--2----------------------|-----------2-----2----------|

  ^                 ^                                     
--------------------0-------|-----0--2-----------2--4----|
--2-----------2-----2-------|--4--------------4----------|
--2--------4--------2-------|--------------4-------------|
--4-----------------2-------|-----------4----------------|
--4-----4-----------0-------|--------2-------------------|
--2--2----------------------|----------------------------|

                                                          
--5-----4--5--4--0----------|--2-----0--2--0-------------|
--7-----------5-------------|--3--------------2----------|
--------------------6-------|--------------------2-------|
--0-------------------------|----------------------------|
--------------4-------------|--2-----------0-------------|
----------------------------|----------------------------|

                                                          
----------------------------|----------------------------|
--0-----0--------------0----|--2--0--------------6-------|
-----2-----------0--2-------|--------6--------4----------|
----------------------------|--------6-----6-------------|
-----------2--0-------------|--4--------4----------------|
--3-------------------------|--------4-------------------|

  ^                 ^                                     
--------------------0-------|----------------------------|
--2-----------2-----2-------|--------4-----------0-------|
--2--------4--------2-------|--------4-----------1-------|
--4-----------------2-------|-----------------------1----|
--4-----4-----------0-------|--0-----------2-------------|
--2--2----------------------|-----------2-----2----------|

  ^                 ^                                     
--------------------0-------|-----0--2-----------2--4----|
--2-----------2-----2-------|--4--------------4----------|
--2--------4--------2-------|--------------4-------------|
--4-----------------2-------|-----------4----------------|
--4-----4-----------0-------|--------2-------------------|
--2--2----------------------|----------------------------|

                                                          
--5-----------7-------------|-----------------0----------|
--7-----9--10----9----------|--7-----9--10-9-----0-------|
--------------------9-------|--7-------------------------|
--0-------------------------|----------------------------|
----------------------------|----------------------------|
--------------9-------------|--7-----------9-------------|

                               ^
--5-----4--2--4--0----------|--2L---|--2----||
--7-----------------2-------|--2L---|--2----||
--------------------4-------|--2L---|--2----||
--------------------2-------|--4L---|--4----||
--0-----------4-------------|--4L---|--4----||
--------------------4-------|--2L---|--2----||

Login or Register to remove this ad.