Ads

Crystal Teardrops (Castlevania: Symphony of the Night) Guitar Tab

Submitted: Jan 16, 2012 by JordanVS

5
Average: 5 (6 votes)
Download | Listen
Game: Castlevania: Symphony of the Night
Composer(s): Michiru Yamane
Style: Arrangement, Fingerstyle, Percussion
Series: Castlevania

AutoScroll: Slow | Medium | Fast
Crystal Teardrops                                 
Castlevania:Symphony Of The Night
Michiru Yamane


Guitar

      Q    S S S Q.     E  S    E.  E  S S Q.     E.   
E||--------------------------|------------------------|
B||---0----------------------|------------------------|
G||*--0------2-0-2---------2-|--0------0--------------|
D||*--2----------------------|--1--------3------------|
A||---0----------------------|--0---------------------|
E||--------------------------|-------------3----------|


                            1.------------------------

  Q    E  E.  S. T S S E.     S E  S E.  H        S    
---------------------------|-------------------------||
---------------------------|-------------------------||
--------------2----2-0-2---|--0----0----------------*||
--2------------------------|--0------3--------------*||
--2------------------------|--1----------------------||
--3------------------------|--3----------3-----------||


2.--------------------------

  E  S S E.  S E  S S E  E     E.  E  S S S Q.     S S  
----------------------------|--------------------------|
----------------------------|--0-----------------------|
--3--2-3-----3------3-------|--0---x--2-0-2--------x-2-|
--5-------------------------|--2-----------------------|
--6------------1------1-----|--------------------------|
----------------------------|--------------------------|


  E.  E  S S Q.     E.     Q    S E  S S S E  T E  S.  
------------------------|-----------------------------|
------------------------|-----------------------------|
--0---x--0----------x---|---------x----2-0-2--L-x--2--|
--1--------3------------|--2--------------------------|
--0---------------------|--2--------------------------|
-------------3----------|--3--------------------------|


                               ^                              
  E  S S E.  S E  S S E  E     H        E.  S T  T T  T S  S  
----------------------------|--0--------L---0-----------0h-1-|
----------------------------|--0--------L----------0h-1------|
--3--2-3-x---3----x-3-------|--0--------L-----0h-2-----------|
--5-------------------------|--2--------L--------------------|
--6------------1------1-----|--2--------L--------------------|
----------------------------|--3--------L--------------------|


                          ^                              
  E  S Q    S H           H        E.  S T  T T  S T  S  
--3--1-----------------|--0--------L---0-----------0h-1-|
--4--------------------|--0--------L----------0h-1------|
--4----2----L-L--------|--0--------L-----0h-2-----------|
-----------------------|--2--------L--------------------|
--0--------------------|--2--------L--------------------|
-----------------------|--3--------L--------------------|


                              ^                                             
  E  S E.  E  S E.  S S E     H.           S S S S    E.  E.  Q.     S E.   
--3----6---3----6---6-5-6--|--7------------7-5-3---|--3---1------------1---|
--3--6--------6------------|---------------------4-|--3--------------------|
--5------------------------|--9--------------------|--5-------3------------|
--0----0--------0----------|--9--------------------|--3-------0------------|
--------------------6------|--7--------------------|------1---1------------|
-----------3------------6--|-----------------------|----------3------------|


  ^                     ^                                            
  H.           S E.     W                   E.  E  S S S Q.     S S  
--0------------------|-------------------|--------------------------|
--0--------------3---|--1----------------|--0-----------------------|
--2------------------|-------------------|--0---x--2-0-2--------x-2-|
--2------------------|--2----------------|--2-----------------------|
--2------------------|--3----------------|--------------------------|
---------------------|--3----------------|--------------------------|


  E.  E  S S Q.     E.     Q    S E.  S S E  T E  S.  
------------------------|----------------------------|
------------------------|----------------------------|
--0---x--0----------x---|---------x---2-0-2--L-x--2--|
--1--------3------------|--2-------------------------|
--0---------------------|--2-------------------------|
-------------3----------|--3-------------------------|


                               ^                        ^                 
  E  S S E.  S E  S S E  E     S S S H        E.  E     W                 
----------------------------|---------------------3--|--1----------------|
----------------------------|--4-3-------------------|--2----------------|
--3--2-3-x---3----x-3-------|--5---5-----------------|--1----------------|
--5-------------------------|--5-----5--------L------|--3----------------|
--6------------1------1-----|--3---------------------|-------------------|
----------------------------|------------------------|-------------------|


  ^                        ^                       ^                       
  S S S H        E.  E     E.  E.  H        E      E.   E.   H        S S  
---------------------3--|--6---4---------------|-------10---11--------L---|
--4-3-------------------|--6-------4--------L--|---8--------------------8-|
--5---5-----------------|--6-------------------|---8----------------------|
--5-----5--------L------|--6-------------------|--10----------------------|
--3---------------------|----------------------|--10----------------------|
------------------------|----------------------|---8----------------------|


  ^                      ^                    ^                  
  E.  E.  H        E     H.           Q       H.           Q     
--6---4------------4--|--3-----------------|--------------------|
----------4-----------|--3------------6----|--4------------0----|
--6-------------------|--------------------|--5-----------------|
--6-------------------|--0-----------------|--5-----------------|
----------------------|--------------------|--3-----------------|
----------------------|--------------------|--------------------|


  S S S S S S S S S S S S S S S S    S S S S S S S S S S S S S S S S  
------------------1---------------|------------------1---------------|
--1---1---3---4-------3---4---1---|------1---3---4-------3---4---1---|
--0-0---0---0---0---0---0---0---0-|----0---0---0---0---0---0---0---0-|
----------------------------------|----------------------------------|
--3---------------3---------------|--1---------------1---------------|
----------------------------------|----------------------------------|


  S S S S S S S S S S S S S S S S    S S S S S S S S S S S S S S S S  
------------------1-------1-------|--3-------1---3-------1-----------|
------1---3---4-------4-------3---|------4-----------4-------3---4---|
----0---0---0---0---0---0---0---0-|----0---0---0---0---0---0---0---0-|
----------------------------------|----------------------------------|
----------------------------------|----------------------------------|
--4---------------4---------------|--3---------------3---------------|


  S S S S S S S S S S S S S S S S    S S S S S S S S S S S S S S S S  
------------------1---------------|------------------1---------------|
------1---3---4-------3---4---1---|------1---3---4-------3---4---1---|
----0---0---0---0---0---0---0---0-|----0---0---0---0---0---0---0---0-|
--1---------------1---------------|--0---------------0---------------|
----------------------------------|----------------------------------|
----------------------------------|----------------------------------|


  S S S S S S S S S S S S S S S S    S S S S S S S S S S S S S S S S  
------------------1-------1-------|--3-------1---3-------1-----------|
------1---3---4-------4-------3---|------4-----------4-------3---4---|
----0---0---0---0---0---0---0---0-|----0---0---0---0---0---0---0---0-|
----------------------------------|--3---------------1---------------|
--3-------------------------------|----------------------------------|
------------------4---------------|----------------------------------|


  ^                  
  W                  
--0----------------||
--0----------------||
--0----------------||
--2----------------||
--0----------------||
-------------------||




Duration Legend
---------------
W - whole
H - half
Q - quarter
E - 8th
S - 16th
T - 32nd
X - 64th
. - note dotted
|-n-|  - n-tuplets


Tablature Legend
----------------
L - tied note
x - dead note
v - brush down
Login or Register to remove this ad.

3 comments on Crystal Teardrops

Very nice, like to see your

5

Very nice, like to see your arrangements, you always do a pretty creative work!

Thanks!

Thanks!

Hay! hay! Like you !

5

wow ! good job !

farewell for now !