A Prologue (Castlevania: Order of Ecclesia) Bass Tab

Submitted: Jul 08, 2009 by auriplane

0
Download | Listen
Game: Castlevania: Order of Ecclesia
Composer(s): Michiru Yamane, Yasuhiro Ichihashi
Style: Transcription
Series: Castlevania

AutoScroll: Slow | Medium | Fast
          Castlevania: Order of Ecclesia - A Prologue BASS TAB
             Song by Michiru Yamane and Yasuhiro Ichihashi

                  Tabbed by auriplane ([email protected])


    Intro

G |7-5-----5-----------------------|--------------------------------|
D |----8-7---8-7-5-8-7-5---7-5-----|5---------------7-5-----0-------|
A |----------------------8-----8-7-|--8-7-5-8-7-5-------8-7---4-----|
E |--------------------------------|--------------6-------------6-5-|

G |--------------------------------|
D |0---0---0---0---0---0---0---0---| x4
A |--------------------------------|
E |--------------------------------|

    Part A

G |--------------------------------|--------------------------------|
D |0---0---0---0---0---0---0---0---|2---2---2---1---1---1---1---1---| x2
A |--------------------------------|--------------------------------|
E |--------------------------------|--------------------------------|

G |--------------------------------|--------------------------------|
D |2---2---2---2---2---2---2---2---|4---4---4---3---3---3---3---3---| x2
A |--------------------------------|--------------------------------|
E |--------------------------------|--------------------------------|

G |--------------------------------|--------------------------------| \
D |2---2---2---2---2---2---2---2---|2---2---2---2---2---2---2---2---|  |
A |--------------------------------|--------------------------------|  |
E |--------------------------------|--------------------------------|  |
                                                                       | x2
G |--------------------------------|--------------------------------|  |
D |2---2---2---2---2---2---2-------|--------------------------------|  |
A |----------------------------0---|0---0---0---0---0---0---0---0---|  |
E |--------------------------------|--------------------------------| /

    Part B

G |--------------------------------|--------------------------------|
D |4---4---4---4---4---4---4---4---|4---4---4---4---4---4---4---4---|
A |--------------------------------|--------------------------------|
E |--------------------------------|--------------------------------|

G |--------------------------------|--------------------------------|
D |4---4---4---4---4---4---4---4---|4---4---4---4---4---4---4---2---|
A |--------------------------------|--------------------------------|
E |--------------------------------|--------------------------------|

G |--------------------------------|--------------------------------|
D |0---0---0---0---0---0---0---0---|2---2---2---2---2---2---2---2---|
A |--------------------------------|--------------------------------|
E |--------------------------------|--------------------------------|

G |--------------------------------|--------------------------------|
D |4---4---4---4---4---4---4---4---|4---4---4---4---4---4---4---4---|
A |--------------------------------|--------------------------------|
E |--------------------------------|--------------------------------|

    Part C

G |--------------0-----------------|----0-------3-------------------|
D |4-------4-----------2-------4---|--------------------------------|
A |--------------------------------|--------------------------------|
E |--------------------------------|--------------------------------|
                             
G |--------------0-----------------|----0---3---6-------------------|
D |4-------4-----------2-------4---|--------------------------------|
A |--------------------------------|--------------------------------|
E |--------------------------------|--------------------------------|
                             
G |6-------6-----7-----4-------6---|------------4-------------------|
D |--------------------------------|----7---------------6-------7---|
A |--------------------------------|--------------------------------|
E |--------------------------------|--------------------------------|

G |--------------------------------|
D |0---0---0---0---0---0---0---0---| x4
A |--------------------------------|
E |--------------------------------|

    Repeat back to Part A.

Login or Register to remove this ad.