Ebony Wings (Castlevania: Harmony Of Despair) Guitar Tab

Submitted: Sep 08, 2010 by Reuben6 (Last updated: Sep 09, 2010)

5
Average: 5 (1 vote)
Download | Listen
Game: Castlevania: Harmony Of Despair
Composer(s): Michiru Yamane, Yasuhiro Ichihashi
Style: Transcription
Series: Castlevania

AutoScroll: Slow | Medium | Fast
Title: Ebony Wings
Game: Castlevania: Harmony Of Despair
Composer: Michiru Yamane and Yasuhiro Ichihashi
Tabber: Reuben6
Date: 26th August 2010
Tuning: Standard

This is my first tab so there might be a few errors, but hopefully it should be good ^^ 
Im working on the rhythm guitar next xD and then maybe the bass, but thats gonna be
harder 'cause i dont have one =( But yeah, please tell me what you think, and more 
importantly, have fun =3



e---------------0~|3-1---|1-0--|-----|-----0~|3-1--|1-0-|
B---------8-10-9--|---3~-|---3-|3-2~-|/10-9--|---3~|---3|
G--7-9-10---------|------|-----|-----|-------|-----|----|
D-----------------|------|-----|-----|-------|-----|----|
A-----------------|------|-----|-----|-------|-----|----|
E-----------------|------|-----|-----|-------|-----|----|

-------|-------|-------|----------------|-----1-5-|/5\4--|
-3/5\3~|-L---L-|-(/15)\|--------8-10-8-6|-5-3-----|----5~|
-------|-------|-------|-7-9-10---------|---------|------|
-------|-------|-------|----------------|---------|------|
-------|-------|-------|----------------|---------|------|
-------|-------|-------|----------------|---------|------|

--------|--------|/3-0----|-1-3-5|-------|-----1|
-/5-6-8~|-6-5-3-2|-----3/5|------|/10~8-6|-5-3--|
--------|--------|--------|------|-------|------|
--------|--------|--------|------|-------|------|
--------|--------|--------|------|-------|------|
--------|--------|--------|------|-------|------|

-/5-/5-4--|-------|-------|/3-0---|--------|
--------5~|/5-6-8~|6-5-3-2|----3/5|-6-8-10-|
----------|-------|-------|-------|--------|
----------|-------|-------|-------|--------|
----------|-------|-------|-------|--------|
----------|-------|-------|-------|--------|

-/5-3-1-0-1~|--0-1-8-5~|---0--1~|-0-1-3~-|1-3-5~|-5-3-1/5|
------------|3---------|-3------|--------|------|--------|
------------|----------|--------|--------|------|--------|
------------|----------|--------|--------|------|--------|
------------|----------|--------|--------|------|--------|
------------|----------|--------|--------|------|--------|

-5-3-1~-|-1-0---|-1-5-3~/5|-5-3-1~|-1-0---|-1-5-3~|-5----|
--------|----3~-|--3------|-------|-----3~|--3----|--6~--|
--------|-------|---------|-------|-------|-------|------|
--------|-------|---------|-------|-------|-------|------|
--------|-------|---------|-------|-------|-------|------|
--------|-------|---------|-------|-------|-------|------|

--------------|
-5h6p5--------|
------7~-(/19)|
--------------|
--------------|
--------------|
Login or Register to remove this ad.