After Confession (Castlevania: Harmony Of Despair) Guitar Tab

Submitted: Aug 31, 2010 by Reuben6 (Last updated: Aug 31, 2010)

5
Average: 5 (1 vote)
Download | Listen
Game: Castlevania: Harmony Of Despair
Composer(s): Michiru Yamane, Yasuhiro Ichihashi
Style: Alternate picking, Transcription
Series: Castlevania

AutoScroll: Slow | Medium | Fast
Title: After Confession
Game: Castlevania: Harmony Of Despair
Composer: Michiru Yamane and Yasuhiro Ichihashi
Tabber: Reuben6
Date: 27th August 2010
Tuning: Standard

Second tab =3 Im making these fast before school starts xD But im at an anime con 
this weekend as hitsugaya, so I cant make anymore for a few days =(
But anyway, hope you like it! I think I MAY Have got that part wrong with 
the dead notes, mainly the last two bars >< But it seems to fit well ^^

e--------|---------|------------|-4-6-8-6-4-1|-6-4-3--|------4-3~|           
B-6-5-6-9|-8-7-8-11|-9-8-9-13-11|------------|-------4|-6-5-6----|
G--------|---------|------------|------------|--------|----------|
D--------|---------|------------|------------|--------|----------|
A--------|---------|------------|------------|--------|----------|
E--------|---------|------------|------------|--------|----------|
            							
-4-3-4-8|-6-5-6-9|-8-13-12-13|-9-8-6-9|-8-----|----------|-------|
--------|--------|-----------|--------|--6-8-9|-8h9p8h9p8|-6-6~--|
--------|--------|-----------|--------|-------|----------|-------|
--------|--------|-----------|--------|-------|----------|-------|
--------|--------|-----------|--------|-------|----------|-------|
--------|--------|-----------|--------|-------|----------|-------|

----------|----------|----------|------------|------|
----------|----------|----------|------------|------|
----------|----------|----------|------------|------|
----------|----------|----------|------------|------|
-2-4-x-x-x|-7-4-x-x-x|-9-4-x-x-x|-9-10-9-10-9|-7-5-4|
-0-2-x-x-x|-5-2-x-x-x|-7-2-x-x-x|-7-8--7-8--7|-5-3-2| x4

--------|---------|------------|-4-6-8-6-4-1|-6-4-3--|------4-3~|
-6-5-6-9|-8-7-8-11|-9-8-9-13-11|------------|-------4|-6-5-6----|
--------|---------|------------|------------|--------|----------|
--------|---------|------------|------------|--------|----------|
--------|---------|------------|------------|--------|----------|
--------|---------|------------|------------|--------|----------|

-4-3-4-8|-6-5-6-9|-8-13-12-13|-9-8-6-9|-8-----|----------|-------|
--------|--------|-----------|--------|--6-8-9|-8h9p8h9p8|-6-6~--|
--------|--------|-----------|--------|-------|----------|-------|
--------|--------|-----------|--------|-------|----------|-------|
--------|--------|-----------|--------|-------|----------|-------|
--------|--------|-----------|--------|-------|----------|-------|

--------|---------|------------|-4-6-8-6-4-1|-6-4-3--|------4-3~|
-6-5-6-9|-8-7-8-11|-9-8-9-13-11|------------|-------4|-6-5-6----|
--------|---------|------------|------------|--------|----------|
--------|---------|------------|------------|--------|----------|
--------|---------|------------|------------|--------|----------|
--------|---------|------------|------------|--------|----------|

-4-3-4-8|-6-5-6-9|-8-13-12-13|-9-8-6-9|-8-----|----------|-------|
--------|--------|-----------|--------|--6-8-9|-8h9p8h9p8|-6-6~--|
--------|--------|-----------|--------|-------|----------|-------|
--------|--------|-----------|--------|-------|----------|-------|
--------|--------|-----------|--------|-------|----------|-------|
--------|--------|-----------|--------|-------|----------|-------|

--------|--------|---------|---------|----------|-----------|-------|
-6~6-5-6|-8-9~9-8|-9-11-12~|14-12~7-9|/12-12-11~|12~12-11-12|-14-15~|
--------|--------|---------|---------|----------|-----------|-------|
--------|--------|---------|---------|----------|-----------|-------|
--------|--------|---------|---------|----------|-----------|-------|
--------|--------|---------|---------|----------|-----------|-------|

------------|----------|
-15-14-15-17|-18-L--18^|
------------|----------|
------------|----------|
------------|----------|
------------|----------|

Organ and choir solo part now xD

----------|----------|----------|------------|------|
----------|----------|----------|------------|------|
----------|----------|----------|------------|------|
----------|----------|----------|------------|------|
-2-4-x-x-x|-7-4-x-x-x|-9-4-x-x-x|-9-10-9-10-9|-7-5-4|
-0-2-x-x-x|-5-2-x-x-x|-7-2-x-x-x|-7-8--7-8--7|-5-3-2| x5

And repeat as many times as u feel neccassary, OR until u get bored. 
Which wont happen. I hope. xD
Login or Register to remove this ad.