Ads

Pitch Black Intrusion (Castlevania: Dawn of Sorrow) Guitar Tab

Submitted: Feb 06, 2011 by morning-glories (Last updated: Feb 07, 2011)

5
Average: 5 (1 vote)
Download | Listen
Game: Castlevania: Dawn of Sorrow
Composer(s): Michiru Yamane
Style: Transcription
Series: Castlevania

AutoScroll: Slow | Medium | Fast
Title: Pitch Black Intrusion
Artist: Michiru Yamane and Masahiko Kimura
Album: Castlevania: Dawn of Sorrow
Arrangement: morning-glories
Standard tuning, no capo

This is my first tab, and I'm aware that there are som mistakes but most of this is from
memory anyways. I was looking for a tab for this song (I was hoping for something a little
more complicated, with the harmonies and bass and all that) but I couldn't find any. I
think this song and Dracula's Tears - which I'll be uploading a tab for soon since I could
only find the bass tab for - are the best songs from this game. Hopefully it's slightly
helpful, I'd love it if a more experienced tabber/arranger could upload something better
though ^_^ 


E|------5-------4-------7-------|-5-------8-------7-------10------|-8-------12------13------10------|
B|------------------------------|---------------------------------|---------------------------------|
G|------------------------------|---------------------------------|---------------------------------|
D|------------------------------|---------------------------------|---------------------------------|
A|------------------------------|---------------------------------|---------------------------------|
E|------------------------------|---------------------------------|---------------------------------|


E|-12------8-------10------7-------|------5-------4-------7-------|-5-------8-------7-------3-------|
B|---------------------------------|------------------------------|---------------------------------|
G|---------------------------------|------------------------------|---------------------------------|
D|---------------------------------|------------------------------|---------------------------------|
A|---------------------------------|------------------------------|---------------------------------|
E|---------------------------------|------------------------------|---------------------------------|


E|-5-----------8---8-----|-7-----------3---3-----|-------------3-----5---2---|-2-----------0----|
B|-----------------------|-----------------------|-----0---1-----------------|-------3----------|
G|-----------------------|-----------------------|-2-------------------------|------------------|
D|-----------------------|-----------------------|---------------------------|------------------|
A|-----------------------|-----------------------|---------------------------|------------------|
E|-----------------------|-----------------------|---------------------------|------------------|


E|-1-----0-----0---|-------0-----0---|-------------3-----5---2---|-2-----------0----|
B|-----------------|-4---------------|-----0---1-----------------|-------3----------|
G|-----------------|-----------------|-2-------------------------|------------------|
D|-----------------|-----------------|---------------------------|------------------|
A|-----------------|-----------------|---------------------------|------------------|
E|-----------------|-----------------|---------------------------|------------------|


E|-1----0----5----7----|-5----4----------|-------------3-----5---2---|-2-----------0----|
B|---------------------|-----------5-----|-----0---1-----------------|-------3----------|
G|---------------------|-----------------|-2-------------------------|------------------|
D|---------------------|-----------------|---------------------------|------------------|
A|---------------------|-----------------|---------------------------|------------------|
E|---------------------|-----------------|---------------------------|------------------|


E|-1-----0-----0---|-------0-----0---|-------------3-----5---2---|-2-----------0----|
B|-----------------|-4---------------|-----0---1-----------------|-------3----------|
G|-----------------|-----------------|-2-------------------------|------------------|
D|-----------------|-----------------|---------------------------|------------------|
A|-----------------|-----------------|---------------------------|------------------|
E|-----------------|-----------------|---------------------------|------------------|


E|-1----0----8----10---|-8----7----------|-----------------------|--------|-------------0---------|
B|---------------------|-----------9-----|-3-----3--5--6----3----|-0------|-1-----1--3-------1----|
G|---------------------|-----------------|-----------------------|--------|-----------------------|
D|---------------------|-----------------|-----------------------|--------|-----------------------|
A|---------------------|-----------------|-----------------------|--------|-----------------------|
E|---------------------|-----------------|-----------------------|--------|-----------------------|


E|-----------0----5----|-5-----5--7--8----5----|-3-------------------|-------------|
B|------1--------------|-----------------------|------5---------5----|-3-----------|
G|-2-------------------|-----------------------|-----------5---------|-------2-----|
D|---------------------|-----------------------|---------------------|-------------|
A|---------------------|-----------------------|---------------------|-------------|
E|---------------------|-----------------------|---------------------|-------------|


E|--------|
B|-0------|
G|--------|
D|--------|
A|--------|
E|--------|



Login or Register to remove this ad.

2 comments on Pitch Black Intrusion

When you export to ASCII from

When you export to ASCII from Tuxguitar, be careful. Your tied notes are turning into double notes. Like in this part:

E|-5-----------8---8-----|-7-----------3---3-----|
B|-----------------------|-----------------------|
G|-----------------------|-----------------------|
D|-----------------------|-----------------------|
A|-----------------------|-----------------------|
E|-----------------------|-----------------------|

Each of those should only be a single note. I usually erase the second one, or replace it with an "L" (which stands for "Legato" I think, to indicate a tied note. That's what Guitar Pro puts in there anyway).

Also, that 8 should be a 6 on the B string.

Finally, this measure has a missing note:

-8----7----------|
-----------9-----|
-----------------|
-----------------|
-----------------|
-----------------|

Try putting in a 5 after the 9.

Overall this is a pretty good tab, though. It's all pretty playable, and although you move up and down the neck, you do so with open strings or by "walking" up the neck, so it's pretty easy. But since you use open strings and low frets so much, it's a lot harder to do vibrato.

By the way, Juja and I did an arrangement of Dracula's Tears a while ago, but I don't think either of us ever made a guitar tab for it. I'm not saying we're great arrangers or performers or anything, but we made one :-)

http://www.gametabs.net/recording/auriplane/draculas-tears-with-juja

Thanks!

I'm pretty new to this whole thing, so thanks so much for the input! I assume it's fairly simple to go back in and edit the tab - hopefully it is at least, because I plan to fix those mistakes tomorrow.

I like your arrangement, especially the inclusion of that little bit of Vampire Killer, it worked really well :)