Ads

Garibaldi Courtyard (Castlevania: Curse of Darkness) Guitar Tab

Submitted: Apr 30, 2010 by auriplane (Last updated: Apr 30, 2010)

5
Average: 5 (6 votes)
Download | Listen
Game: Castlevania: Curse of Darkness
Composer(s): Michiru Yamane
Style: Arrangement, Artificial harmonics, Fingerstyle
Series: Castlevania

AutoScroll: Slow | Medium | Fast
                  Castlevania Curse of Darkness - Garibaldi Courtyard
                              Composed by Michiru Yamane

                  Arranged for guitar by Auriplane ([email protected])


Drop-D tuning.  This might not be the best arrangement ever, but I'm not sure what else
to do to it, so here it is :-)  If you make something better out of it, let me know!


    Part A

     E  E  E  E  E  E  E  E     E  E  E  E  E  E  E  E     E  E  E  E  E  E  E  E
e||--------7-----------7-----|--------3-----------3-----|--------7-----------7-----|
B||-----7-----7-----7-----7--|--0-----------0-----------|-----7-----7-----7-----7--|
G||--4-----------4-----------|-----5-----5-----5-----5--|--4-----------4-----------|
D||--------------------------|--------------------------|--------------------------|
A||--------------------------|--------------------------|--------------------------|
D||--------------------------|--------------------------|--------------------------|


                                Part B

  E  E  E  E  E  E  E  E       E  E  E  E  E  E  E  E     E  E  E  E  E  E  E  E
--------3-----------3-----||---2-----------------------|--1-----------------------|
--0-----------0-----------||---------------------------|--------------3-----------|
-----5-----5-----5-----5--||*--------4-----------4-----|--------0-----------0-----|
--------------------------||*-----4-----4-----4-----4--|--------------------------|
--------------------------||---2-----------2-----------|--2--3-----3--2--3-----3--|
--------------------------||---------------------------|--------------------------|


  E  E  E  E  E  E  E  E     E  E  E  E  E  E  E  E     E  E  E  E  E  E  E  E
--2-----------------------|--1-----------------------|--0--------2--------------|
--------------------------|--------------3-----------|--------3-----2-----------|
--------4-----------4-----|--------0-----------0-----|--------4-----------2-----|
-----4-----4-----4-----4--|--------------------------|-----4-----------4-----4--|
--2-----------2-----------|--2--3-----3--2--3-----3--|--2-----------0-----------|
--------------------------|--------------------------|--------------------------|


                                                        First ending


  E  E  E  E  E  E  E  E     E  E  E  E  E  E  E  E     E  E  E  E  E  E  E  E
--------------------------|--------------------------|---------------------------||
--------2--3--2-----------|--0-----------------------|--2------------------------||
--------0-----------2-----|--------0-----------0-----|--------3-----------3-----*||
-----0-----0--------4-----|--------------------------|--------------------------*||
-----------------5-----5--|-----2-----2-----2-----2--|-----4-----4-----4-----4---||
--5-----------4-----------|--2-----------2-----------|--4-----------4------------||


  Second ending              Part C


  E  E  E  E  E  E  E  E     E  E  E  E  E  E  E  E     E  E  E  E  E  E  E  E
--------------------------|--0-----------------------|--------------------------|
--2-----------------------|--------3--2--3-----------|--------2--3--2-----------|
--------2-----------3-----|--------4-----------4-----|--------4-----------2-----|
-----2-----2-----4--------|-----4-----4-----4-----4--|-----4-----4-----4-----4--|
--0--------------------4--|--2-----------2-----------|--0-----------0-----------|
--------------4-----------|--------------------------|--------------------------|


  E  E  E  E  E  E  E  E     E  E  E  E  E  E  E  E     E  E  E  E  E  E  E  E
--0-----------------------|--------------------2-----|--5-----3--2--3-----------|
--------3--2--3-----------|--------2-----3-----0-----|--------------------------|
--------4-----------4-----|--------4-----------------|--------------------------|
-----0-----0-----0-----0--|-----0-----0-----0-----0--|--------5-----------5-----|
--------------------------|--------------------------|-----2-----2-----2-----2--|
--5-----------5-----------|--4-----------4-----------|--2-----------2-----------|


  E  E  E  E  E  E  E  E     E  E  E  E  E  E  E  E     E  E  E  E  E  E  E  E
--------2-----3-----------|--5-----3--2--3-----------|--------2-----3-----7-----|
--------------------2-----|--------------------------|--------3-----------------|
-----4-----4-----4-----4--|--------0-----------0-----|--------------------7-----|
--0-----------0-----------|-----2-----2-----2-----2--|-----4-----4-----4-----4--|
--------------------------|--3-----------3-----------|--2-----------2-----------|
--------------------------|--------------------------|--------------------------|


   E  E  E  E  E  E  E  E     E  E  E  E  E  E  E  E     E  E  E  E  E  E  E  E
--10-----8--7--8-----------|--------7--8--7--------5--|--5-----3--7--2-----------|
---------------------------|--------------------------|--------------------------|
---------9-----------5-----|--------4-----------4-----|--------------------------|
---------------------------|-----4-----4-----3-----3--|--------2-----------0-----|
------7-----7-----7-----7--|--------------------------|-----2-----2-----0-----0--|
---7-----------7-----5-----|--4-----------3-----------|--2-----------0-----------|


  E  E  E  E  E  E  E  E     E  E  E  E  E  E  E  E     E  E  E  E  H
--------0-----0--------2--|--0-----------0--------0--|-----------------------|
--------------------------|--------------------------|--4-----------4--------|
--------4-----3-----3-----|--------4--------4--------|--------4--------------|
-----2-----2-----2--------|-----4-----4--------4-----|-----4-----4-----------|
--3-----------3-----------|--2-----------------------|--2--------------------|
--------------------------|--------------------------|-----------------------|


    Part D


  E  E  E  E  E  E  E  E     E  E  E  E  E  E  E  E     E  E  E  E  E  E  E  E
--------------0-----------|--------------------------|--------------2-----------|
--3-----2--3--------------|--------3--------------3--|--3-----2--3--------------|
--------4-----------4-----|--------4--5--3-----5-----|--------4-----------4-----|
-----4-----4-----4-----4--|-----5-----5-----5-----5--|-----4-----4-----4-----4--|
--2-----------2-----------|--2-----------2-----------|--2-----------2-----------|
--------------------------|--------------------------|--------------------------|


  E  E  E  E  E  E  E  E     E  E  E  E  E  E  E  E     E  E  E  E  E  E  E  E
--------------------------|--------------0-----------|-----------0--2-----3--5--|
--------------------------|--3-----2--3--------------|--------3-----------0-----|
--------4-----------4-----|--------4-----------4-----|--------4--------0-----0--|
-----5-----5-----5-----5--|-----4-----4-----4-----4--|-----5-----5--------------|
--2-----------2-----------|--2-----------2-----------|--2-----------2-----------|
--------------------------|--------------------------|--------------------------|


  E  E  E   E   E  E  E  E     E   E  E   E  E   E  E   E      E  E  E  E  E  E  E  E
--------9--10--12-----------|------------------------------|--14-----------------------|
--12------------------------|------------------------------|---------------------------|
----------------------------|------------------------------|---------------------------|
--------9-------------9-----|---------9-------------9------|---------9-----------9-----|
-----9------9------9-----9--|-----10-----10-----10-----10--|------9-----9-----9-----9--|
--9-------------9-----------|--9-------------9-------------|---9-----------9-----------|


  E   E  E   E  E   E  E   E        E  E  E  E  E  E  E  E     E   E  E   E  E   E  E   E
------------------------------|--<>14-----------------------|------------------------------|
------------------------------|-----------------------------|------------------------------|
------------------------------|-----------------------------|------------------------------|
---------9-------------9------|-----------9-----------9-----|---------9-------------9------|
-----10-----10-----10-----10--|--------9-----9-----9-----9--|-----10-----10-----10-----10--|
--9-------------9-------------|-----9-----------9-----------|--9-------------9-------------|


   ^              ^
   Q.      S   S  H           W
---------------------------|-------------------||
---------------------------|-------------------||
--12------11h-12-11--------|--L----------------||
--12--------------9--------|--L----------------||
---9--------------9--------|--L----------------||
---9--------------9--------|--L----------------||




Duration Legend
---------------
W - whole
H - half
Q - quarter
E - 8th
S - 16th
. - note dotted


Tablature Legend
----------------
L - tied note
<> - artificial harmonic
h - hammer on
^ - brush up
Login or Register to remove this ad.

1 comment on Garibaldi Courtyard

Great Job, I love it.

5

Great Job, I love it.