The Sinking Old Sanctuary (Castlevania: Circle of The Moon) Bass/Guitar Tab

Submitted: Jun 03, 2010 by RexLeRouge

5
Average: 5 (3 votes)
Download | Listen
Game: Castlevania: Circle of The Moon
Composer(s): Konami Kukeiha Club
Style: 2 or more instruments, Transcription
Series: Castlevania

AutoScroll: Slow | Medium | Fast
                          The Sinking Old Sanctuary                             



/!\ There's some weird rythm things at the beginning, check the .pdf or .gp5 ! /!\



Mélodie
      Q    Q    H           E   E   E  Q         Q    Q    H         
E||---9----7-------------|---------11--------||--9----7-------------|
B||-------------7--------|--9--12------------||------------7--------|
G||*---------------------|------------------*||---------------------|
D||*---------------------|------------------*||---------------------|
A||----------------------|-------------------||---------------------|
E||----------------------|-------------------||---------------------|


  H        H           H.              H.              H.            
--------------------|---------------|---------------|---------------|
--9-----------------|--7------------|--L------------|---------------|
-----------9--------|---------------|---------------|---------------|
--------------------|---------------|---------------|---------------|
--------------------|---------------|---------------|---------------|
--------------------|---------------|---------------|---------------|


  H          Q          H.               H.              H.            
-------------------|--(14)------------|--L------------|---------------|
-----------(14)----|------------------|---------------|---------------|
-------------------|------------------|---------------|---------------|
-------------------|------------------|---------------|---------------|
-------------------|------------------|---------------|---------------|
-------------------|------------------|---------------|---------------|

                Segno
  H.              Q    Q    Q       H        E  E     Q    Q    Q     
---------------|-----------------|-----------------|-----------------|
---------------|-----------------|-----------------|-----------------|
---------------|--6---------6----|--4--------------|------------6----|
---------------|-------4---------|-----------7--6--|--4----7---------|
---------------|-----------------|-----------------|-----------------|
---------------|-----------------|-----------------|-----------------|


  Q    Q.     E     Q    Q    Q       Q    Q.     E     Q    Q.     E   
-----------------|-----------------|-------4---------|-----------------|
-----------------|-----------------|--7-----------5--|--------------5--|
--4--------------|------------6----|-----------------|--6----4---------|
-------7------6--|--4----4---------|-----------------|-----------------|
-----------------|-----------------|-----------------|-----------------|
-----------------|-----------------|-----------------|-----------------|


  Q    E  E  E  E     Q    Q    Q       H        E  E     E  Q    E  E  E   
-------------------|-----------------|-----------------|-------------4-----|
--L----------------|-----------------|-----------------|----------7-----5--|
-------6--4--------|------------6----|--4--------------|-------------------|
-------------7--6--|--4----4---------|-----------7--6--|-----4-------------|
-------------------|-----------------|-----------------|-------------------|
-------------------|-----------------|-----------------|-------------------|


  Q    Q    Q       Q    Q    Q       Q    Q    Q       H.            
--5----4---------|-----------------|-----------------|---------------|
------------5----|--L----7---------|-----------------|---------------|
-----------------|------------4----|--4----6---------|---------------|
-----------------|-----------------|-----------------|--4------------|
-----------------|-----------------|------------7----|---------------|
-----------------|-----------------|-----------------|---------------|


  H.              H.              H.              H.              H.            
---------------|---------------|---------------|---------------|---------------|
---------------|---------------|---------------|---------------|---------------|
---------------|---------------|---------------|---------------|---------------|
--L------------|--L------------|--L------------|---------------|---------------|
---------------|---------------|---------------|---------------|---------------|
---------------|---------------|---------------|---------------|---------------|


  H.              H.               Q     Q     Q        H         E   E   
---------------|---------------|--------------------|--------------------|
---------------|---------------|--------------------|--------------------|
---------------|---------------|--18----------18----|--16----------------|
---------------|---------------|--------16----------|------------19--18--|
---------------|---------------|--------------------|--------------------|
---------------|---------------|--------------------|--------------------|


   Q     Q     Q        Q     Q.      E      Q     Q     Q     
--------------------|--------------------|--------------------|
--------------------|--------------------|--------------------|
--------------18----|--16----------------|--------------18----|
--16----19----------|--------19------18--|--16----16----------|
--------------------|--------------------|--------------------|
--------------------|--------------------|--------------------|


   Q     Q.      E      Q     Q.      E     Q     E   E   E   E   
--------16----------|--------------------|-----------------------|
--19------------17--|----------------17--|--L--------------------|
--------------------|--18----16----------|-------18--16----------|
--------------------|--------------------|---------------19--18--|
--------------------|--------------------|-----------------------|
--------------------|--------------------|-----------------------|


   Q     Q     Q        H         E   E     E   Q     E   E   E   
--------------------|--------------------|---------------16------|
--------------------|--------------------|-----------19------17--|
--------------18----|--16----------------|-----------------------|
--16----16----------|------------19--18--|-----16----------------|
--------------------|--------------------|-----------------------|
--------------------|--------------------|-----------------------|


   Q     Q     Q       Q     Q     Q        Q     Q     Q        H.            
--17----16----------|-------------------|--------------------|----------------|
--------------17----|--L----19----------|--------------------|----------------|
--------------------|-------------16----|--16----18----------|----------------|
--------------------|-------------------|--------------------|--16------------|
--------------------|-------------------|--------------19----|----------------|
--------------------|-------------------|--------------------|----------------|


  H.              H.              H.              H.            
---------------|---------------|---------------|---------------|
---------------|---------------|---------------|--7------------|
---------------|---------------|---------------|---------------|
--L------------|--L------------|--L------------|---------------|
---------------|---------------|---------------|---------------|
---------------|---------------|---------------|---------------|


  Q    Q    Q       Q    Q    Q       Q    Q    Q       H.            
------------5----|-----------------|-----------------|---------------|
--L----5---------|-------7----5----|------------5----|---------------|
-----------------|-----------------|-------4---------|--6------------|
-----------------|-----------------|-----------------|---------------|
-----------------|-----------------|-----------------|---------------|
-----------------|-----------------|-----------------|---------------|


  Q    Q.     E     H.              H.              H.            
-----------------|---------------|---------------|---------------|
-------5---------|---------------|---------------|--7------------|
--L-----------7--|--6------------|--L------------|---------------|
-----------------|---------------|---------------|---------------|
-----------------|---------------|---------------|---------------|
-----------------|---------------|---------------|---------------|


  Q    Q    Q       Q     Q     Q        Q     Q.      E     H.            
------------5----|-------------------|--------12------10--|--9------------|
--L----5---------|-------------12----|--10----------------|---------------|
-----------------|-------11----------|--------------------|---------------|
-----------------|-------------------|--------------------|---------------|
-----------------|-------------------|--------------------|---------------|
-----------------|-------------------|--------------------|---------------|


  E  E  E  E   E  E     H.              H.              Q    Q    Q     
--7------------------|---------------|---------------|-----------------|
-----8---------------|---------------|---------------|-----------------|
--------7------------|---------------|---------------|--6---------6----|
-----------9------7--|---------------|---------------|-------6---------|
--------------10-----|--9------------|---------------|-----------------|
---------------------|---------------|---------------|-----------------|


  Q    E  E  Q       Q    Q    Q       H.              Q    Q    Q     
------------------|-----------------|---------------|-----------------|
------------------|-------5---------|---------------|--5---------5----|
--L----------4----|------------7----|--L------------|-------4---------|
-------6--7-------|--7--------------|---------------|-----------------|
------------------|-----------------|---------------|-----------------|
------------------|-----------------|---------------|-----------------|


  Q    E  E  Q       H.               E   E   E   E   E   E   
-------------4----|--5------------|--16--14------------------|
--L----5--7-------|---------------|----------17--15--14------|
------------------|---------------|----------------------16--|
------------------|---------------|--------------------------|
------------------|---------------|--------------------------|
------------------|---------------|--------------------------|


   Q     Q     Q       Q     E   E   Q        Q     Q     Q       H.            
--------------------|---------------------|--------------------|---------------|
--14----------14----|--L------------12----|--------17----15----|--L------------|
--------13----------|-------13--14--------|--14----------------|---------------|
--------------------|---------------------|--------------------|---------------|
--------------------|---------------------|--------------------|---------------|
--------------------|---------------------|--------------------|---------------|


   Q     Q     Q       Q     E   E   Q        H.            
--12----------12----|--L--------14--16----|--17------------|
--------12----------|-------17------------|----------------|
--------------------|---------------------|----------------|
--------------------|---------------------|----------------|
--------------------|---------------------|----------------|
--------------------|---------------------|----------------|

                  da Segno
   E   E   E   E   E   E    
--16--14------------------||
----------17--15--14------||
----------------------16--||
--------------------------||
--------------------------||
--------------------------||




Basse
      Q    Q    Q    Q       Q.     Q         Q    Q    Q    Q     
G||------------------4----|--L------------||-------4----6---------|
D||*--4----6----7---------|--------------*||--7-------------------|
A||*----------------------|--------------*||-----------------4----|
E||-----------------------|---------------||----------------------|


  W                   Q     Q.     E     Q    Q.     E     Q     Q.     E   
-------------------|------------------|-------8---------|---------------9--|
-------------------|-------11---------|-----------------|-------11---------|
--L----------------|--9------------9--|--9-----------9--|--9---------------|
-------------------|------------------|-----------------|------------------|


  E  Q    Q    E     Q     Q.     E     Q    Q.     E     Q     Q.     E   
--9--8------------|------------------|-------8---------|---------------9--|
----------9-------|-------11---------|-----------------|-------11---------|
---------------9--|--9------------9--|--9-----------9--|--9---------------|
------------------|------------------|-----------------|------------------|

                  Segno
  E  Q    Q    E     Q     Q.     E     Q    Q.     E     Q     Q.     E   
--9--8------------|------------------|-------8---------|------------------|
----------9-------|-------11---------|-----------------|-------11---------|
---------------9--|--9------------9--|--9-----------9--|--9------------9--|
------------------|------------------|-----------------|------------------|


  Q    Q.     E     Q     Q.     E     Q    Q.     E     Q    Q.     E   
-------8---------|------------------|--------------9--|-------9---------|
-----------------|-------11---------|-------9---------|--7-----------7--|
--9-----------9--|--9------------9--|--7--------------|-----------------|
-----------------|------------------|-----------------|-----------------|


  H         Q       Q     Q.     E     Q    Q.     E     Q     Q.     E   
-----------------|------------------|-------8---------|------------------|
--6--------11----|-------11---------|-----------------|-------11---------|
-----------------|--9------------9--|--9-----------9--|--9------------9--|
-----------------|------------------|-----------------|------------------|


  Q    Q.     E     Q    Q.     E     Q    Q.     E     Q     Q.     E   
-------6---------|-----------------|-----------------|------------------|
-----------------|-------9---------|-----------------|-------11---------|
--7-----------7--|--6-----------6--|--5----4------4--|--9------------9--|
-----------------|-----------------|-----------------|------------------|


  Q    Q.     E     Q     Q.     E     E  Q    Q    E     Q     Q.     E   
-------8---------|---------------9--|--9--8------------|------------------|
-----------------|-------11---------|----------9-------|-------11---------|
--9-----------9--|--9---------------|---------------9--|--9------------9--|
-----------------|------------------|------------------|------------------|


  Q    Q.     E     Q     Q.     E     E  Q    Q    E     Q     Q.     E   
-------8---------|---------------9--|--9--8------------|------------------|
-----------------|-------11---------|----------9-------|-------11---------|
--9-----------9--|--9---------------|---------------9--|--9------------9--|
-----------------|------------------|------------------|------------------|


  Q    Q.     E     Q     Q.     E     Q    Q.     E     Q     Q.     E   
-------8---------|------------------|-------8---------|------------------|
-----------------|-------11---------|-----------------|-------11---------|
--9-----------9--|--9------------9--|--9-----------9--|--9------------9--|
-----------------|------------------|-----------------|------------------|


  Q    Q.     E     Q    Q.     E     H         Q       Q     Q.     E   
-------6------9--|--------------8--|--7--------------|------------------|
-----------------|-------9---------|-----------11----|-------11---------|
--7--------------|--6--------------|-----------------|--9------------9--|
-----------------|-----------------|-----------------|------------------|


  Q    Q.     E     Q     Q.     E     Q    Q.     E     Q    Q.     E   
-------8---------|------------------|-------6---------|-----------------|
-----------------|-------11---------|-----------------|-------9---------|
--9-----------9--|--9------------9--|--7-----------7--|--6-----------6--|
-----------------|------------------|-----------------|-----------------|


  Q    Q.     E     Q     Q.     E     Q    Q.     E     Q     Q.     E   
-----------------|------------------|-------8---------|---------------9--|
-----------------|-------11---------|-----------------|-------11---------|
--5----4------4--|--9------------9--|--9-----------9--|--9---------------|
-----------------|------------------|-----------------|------------------|


  E  Q    Q    E      Q.      Q.         Q.      Q     E      Q.      Q.      
--9--8------------|------------------|--------------------|------------------|
----------9-------|----------12------|----------12--------|----------12------|
---------------9--|--10--------------|--10----------------|--10--------------|
------------------|------------------|----------------10--|------------------|


   Q.      Q     E     Q     Q.     E      Q     Q     Q     
--------------------|------------------|--------------------|
----------12--------|-------11---------|--------12----------|
--10----------------|--9------------9--|--10----------10----|
----------------10--|------------------|--------------------|


  Q     Q.      E     Q.      Q    E      Q.      Q.         Q.      Q     E   
---------------11--|--L---------------|------------------|--------------------|
-------11----------|---------11-------|----------12------|----------12--------|
--9----------------|---------------9--|--10--------------|--10----------------|
-------------------|------------------|------------------|----------------10--|


   Q.      Q.         Q.      Q     E     Q     Q.     E     Q    Q    Q     
------------------|--------------------|------------------|-------7---------|
----------12------|----------12--------|-------11---------|-----------------|
--10--------------|--10----------------|--9------------9--|--8---------8----|
------------------|----------------10--|------------------|-----------------|


  Q     Q.      E     Q.     E  E  E     Q.     E  E  E     H        Q     
---------------11--|--L---------------|---------------6--|--L-------------|
-------11----------|------------------|---------6--------|-----------6----|
--9----------------|---------7--5--4--|--4---------------|----------------|
-------------------|------------------|------------------|----------------|


  Q.     E  E  E     Q    Q    E  E     Q.     E  E  E     H        Q     
---------------7--|--L---------7-----|---------------6--|--L-------------|
---------7--------|-------7-------7--|---------6--------|-----------6----|
--4---------------|------------------|--4---------------|----------------|
------------------|------------------|------------------|----------------|


  Q.     E  E  E     Q    Q    E  E     E  E  E  E  E  E     E  E  E  E  E  E   
---------------7--|--L---------7-----|--------------------|--------------------|
---------7--------|-------7-------7--|--------------------|--------------------|
--4---------------|------------------|--4-----4-----4-----|--4-----4-----4-----|
------------------|------------------|-----4-----4-----4--|-----4-----4-----4--|


  E  E  Q    E  E     E  E  E  E  E  E     E  E  E  E  E  E   
-------------------|--------------------|--------------------|
-------------6-----|--------------------|--------------------|
--4-----4-------4--|--L-----4-----4-----|--4-----4-----4-----|
-----4-------------|-----4-----4-----4--|-----4-----4-----4--|

                                                     da Segno
  E  E  E  E  E  E     E  E  E  E  E  E     E  E  E  E  E  E    
--------------------|--------------------|-----------------9--||
--------------------|--------------------|-----------9--------||
--4-----4-----4--4--|--5-----5-----5--7--|--L-----7-----7-----||
-----4-----4--------|-----5-----5--------|-----7--------------||




Duration Legend
---------------
W - whole
H - half
Q - quarter
E - 8th
S - 16th
T - 32nd
X - 64th
. - note dotted
|-n-|  - n-tuplets


Tablature Legend
----------------
L - tied note
x - dead note
g - grace note
(n) - ghost note
> - accentuded note
NH - natural harmonic
AH - artificial harmonic
TH - tapped harmonic
SH - semi harmonic
PH - pitch harmonic
h - hammer on
p - pull off
b - bend
br - bendRelease
pb - preBend
pbr - preBendRelease
brb - bendReleaseBend
\n/ - tremolo bar dip
\n - tremolo bar dive
-/n - tremolo bar Release up
/n\ - tremolo bar inverted dip
/n - tremolo bar return
-\n - tremolo bar Release down
S - shift slide
s - legato slide
/ -  slide into from below or out of upwards
\ -  slide into from above or out of downwards
~ - vibrato
W - wide vibrato
tr - trill
TP - tremolo picking
T - tapping
S - slap
P - pop
< - fade in
^ - brush up
v - brush down
Login or Register to remove this ad.

3 comments on The Sinking Old Sanctuary

Here's hoping for an incoming

Here's hoping for an incoming tab streak of circle of the moon songs from Rex :)

Thx :) I'm tabbing that one

Thx :)
I'm tabbing that one atm
http://www.youtube.com/watch?v=6xpHAAw5egc

GOOD FUCKING JOB!

5

Bro i've signed up in this website so i can say thank you.
You did a fucking amazing job by putting bass and guitar tabs for it and making a file on GP,you're a fucking legend!

I love you!