Aquarius (Castlevania: Circle of The Moon) Bass/Guitar Tab

Submitted: Jun 07, 2010 by RexLeRouge (Last updated: Jun 07, 2010)

5
Average: 5 (1 vote)
Download | Listen
Game: Castlevania: Circle of The Moon
Composer(s): Konami Kukeiha Club
Style: 2 or more instruments, Tapping, Transcription
Series: Castlevania

AutoScroll: Slow | Medium | Fast
                                   Aquarius                                     


Mélodie

     Tapping!!!                                              
     T     T     T     T     T     T     T     T     
     S  S  S  S  S  S  S  S  S  S  S  S  S  S  S  S  
E||--8p-3-10p-3-11p-3-13p-3-15p-3-13p-3-11p-3-10p-3-|
B||-------------------------------------------------|
G||-------------------------------------------------|
D||-------------------------------------------------|
A||-------------------------------------------------|
E||-------------------------------------------------|


  If you don't want tapping...                                              
  T     T     T     T     T     T     T     T     
  S  S  S  S  S  S  S  S  S  S  S  S  S  S  S  S  
--8p-3-10p-3-11p-3-13p-3-15p-3-13p-3-11p-3-10p-3-|
-------------------------------------------------|
-------------------------------------------------|
-------------------------------------------------|
-------------------------------------------------|
-------------------------------------------------|


  Look at measure 17                                              
  T     T     T     T     T     T     T     T     
  S  S  S  S  S  S  S  S  S  S  S  S  S  S  S  S  
--8p-3-10p-3-11p-3-13p-3-15p-3-13p-3-11p-3-10p-3-|
-------------------------------------------------|
-------------------------------------------------|
-------------------------------------------------|
-------------------------------------------------|
-------------------------------------------------|

                                     Segno
  S S S  S S S  S S  E   E   E   E       S E  S S S E  E  E  E  E   
--8--------8------8-10--10--11--13--||-----------------------------|
------9-11---9-11-------------------||---4-3-----------------3--4--|
----8-------------------------------||*-------3-L------------------|
------------------------------------||*-----------3-5--L-----------|
------------------------------------||-----------------------------|
------------------------------------||-----------------------------|


  S E  S S S E  E  Q    E     S E  S E  S S S E.  E  E   
-------------3--L----------|----------------------------|
--4-3------6------------3--|--4-3-----------------------|
-------3-L-----------------|-------5-L--5-3-L--------5--|
---------------------------|------------------6---6-----|
---------------------------|----------------------------|
---------------------------|----------------------------|


  E.  E.  S S S S S S S S S S      S S S S S S S E.  E  E  E   
--3----------------------------||-----------------------------|
------6---L---------------3-3--||--4-3---4---3---4---3--6--4--|
------------------4-4-5-5-----*||-----------------------------|
------------3-5-5-------------*||-----------------------------|
-------------------------------||-----------------------------|
-------------------------------||-----------------------------|


  S S S S S S S E.  E  E  E     Q    S S S S Q    S S S S  
-----------------------4--3--|--3----L-------3----L-------|
--4-3---4---3---4---3--------|---------6-4-6--------4-6-4-|
-----------------------------|----------------------------|
-----------------------------|----------------------------|
-----------------------------|----------------------------|
-----------------------------|----------------------------|


  E.  E.  E  E.  E.  E      S  S S  S S  S S  E.   E   E   E   
--3-------3-------------|-------------------------------------|
------6------6---4---3--|--16-15---16---15---16---15--18--16--|
------------------------|-------------------------------------|
------------------------|-------------------------------------|
------------------------|-------------------------------------|
------------------------|-------------------------------------|


   S  S S  S S  S S  E.   E   E   E      Q    S  S  S  S  Q    S  S  S  S  
-----------------------------16--15--|--15----L----------15----L----------|
--16-15---16---15---16---15----------|----------18-16-18---------16-18-16-|
-------------------------------------|------------------------------------|
-------------------------------------|------------------------------------|
-------------------------------------|------------------------------------|
-------------------------------------|------------------------------------|


   E.   E.   E   E.   E.   E   
--15--------15----------------|
-------18-------18---16---15--|
------------------------------|
------------------------------|
------------------------------|
------------------------------|


   S  S  S  S  S  S  S  S  S  S  S  S  S  S  S  S  
--------------------13----15----13----------------|
--13----15----16----------------------16----15----|
-----12----12----12----12----12----12----12----12-|
--------------------------------------------------|
--------------------------------------------------|
--------------------------------------------------|


   S  S  S  S  S  S  S  S  S  S  S  S  S  S  S  S  
--------------------13----15----13----------------|
--13----15----16----------------------16----15----|
-----12----12----12----12----12----12----12----12-|
--------------------------------------------------|
--------------------------------------------------|
--------------------------------------------------|


   S  S  S  S  S  S  S  S  S  S  S  S  S  S  S  S  
--------------------13----15----13----------------|
--13----15----16----------------------16----15----|
-----12----12----12----12----12----12----12----12-|
--------------------------------------------------|
--------------------------------------------------|
--------------------------------------------------|


   S  S  S  S  S  S  S  S  S  S  S  S  S  S  S  S  
--------------------13----15----13----------------|
--13----15----16----------------------16----15----|
-----13----13----13----13----12----12----12----12-|
--------------------------------------------------|
--------------------------------------------------|
--------------------------------------------------|


  T     T     T     T     T     T     T     T     
  S  S  S  S  S  S  S  S  S  S  S  S  S  S  S  S  
--8p-3-10p-3-11p-3-13p-3-15p-3-13p-3-11p-3-10p-3-|
-------------------------------------------------|
-------------------------------------------------|
-------------------------------------------------|
-------------------------------------------------|
-------------------------------------------------|


  T     T     T     T     T     T     T     T     
  S  S  S  S  S  S  S  S  S  S  S  S  S  S  S  S  
--8p-3-10p-3-11p-3-13p-3-15p-3-13p-3-11p-3-10p-3-|
-------------------------------------------------|
-------------------------------------------------|
-------------------------------------------------|
-------------------------------------------------|
-------------------------------------------------|


  T     T     T     T     T     T     T     T     
  S  S  S  S  S  S  S  S  S  S  S  S  S  S  S  S  
--8p-3-10p-3-11p-3-13p-3-15p-3-13p-3-11p-3-10p-3-|
-------------------------------------------------|
-------------------------------------------------|
-------------------------------------------------|
-------------------------------------------------|
-------------------------------------------------|


  T     T     T     T     T     T     T     T                                  
  S  S  S  S  S  S  S  S  S  S  S  S  S  S  S  S    E  S S S S S E.  E  E  E   
--8p-4-10p-4-11p-4-13p-4-15p-3-13p-3-11p-3-10p-3-|---------------2------------|
-------------------------------------------------|-------3---4-------4--3--4--|
-------------------------------------------------|-----5----------------------|
-------------------------------------------------|----------------------------|
-------------------------------------------------|----------------------------|
-------------------------------------------------|----------------------------|


  E.  E.  Q    E  E  E     E.  E.  E  E.  E.  E     E.  E.  Q.     Q     
------------------------|------------------------|----------------------|
--3---------------------|-------------4---3------|----------3------L----|
------4---5-------5--3--|------3---5----------5--|--4---5---------------|
---------------5--------|--6---------------------|----------------------|
------------------------|------------------------|----------------------|
------------------------|------------------------|----------------------|


  E  S S S S S E.  E  E  E     E.  E.  Q    E  E  E     E.  E.  E  E.  E.  E   
---------------2------------|------------------------|------------------------|
-------3---4-------4--3--4--|--3---------------------|-------------4---3------|
-----5----------------------|------4---5-------5--3--|------3---5----------5--|
----------------------------|---------------5--------|--6---------------------|
----------------------------|------------------------|------------------------|
----------------------------|------------------------|------------------------|

                da Segno
  Q    Q    Q    Q      
----------------------||
------------3----6----||
--4----5--------------||
----------------------||
----------------------||
----------------------||



Basse
      Q    S  S  S  S  S  S  S  S S  S E   
G||-------------------------15-14---12----|
D||----------------------13---------------|
A||--15------------13-15------------------|
E||----------13-15------------------------|


   Q    S  S  S  S  S  S  S  S S  S E      Q    S  S  S  S  S  S  S  S S  S E   
-------------------------15-14---12----|-------------------------15-14---12----|
----------------------13---------------|----------------------13---------------|
--13------------13-15------------------|--12------------13-15------------------|
----------13-15------------------------|----------13-15------------------------|


   Q    E   S  S  E   S  S  E   S  S  
--------------13--------15--------17-|
-----------13--------15--------17----|
--11-------------13--------14--------|
-------------------------------------|

 Segno
     E   E   S  S  S  S S  S  S S  S  S  E   
|-------17--------17---------17-L-------17--|
|*------------------------------------------|
|*--15------15-15----15-L-15------15-15-----|
|-------------------------------------------|


   E   E   S  S  S  S S  S  S S  S  S  E   
------15--------15---------15-L-------15--|
------------------------------------------|
--13------13-13----13-L-13------13-13-----|
------------------------------------------|


   E   E   S  S  S  S S  S  S S  S  S  E   
------------------------------------------|
------15--------15---------15-L-------17--|
------------------------------------------|
--13------13-13----13-L-13------13-13-----|


   E   E   S  S  S  S S  S  S S  S  S  E        H        S  S  S  S  E   S  S  
-------------------------------------------||---------------------------------|
------18--------18---------17-L-----------*||--16----------16----16-----------|
--------------------------------------14--*||-----------------17----15--15-17-|
--16------16-16----15-L-15------15-15------||---------------------------------|


   H        S  S  S  S  S  S  S  S     E   E   E   S  S S  E   S  E   E   
-----------------------------------|-----------------------------15--17--|
--15----------15----15-------------|-----------------18---18--18---------|
-----------------17----17----15-17-|--18--18--18--18---------------------|
--------------------------18-------|-------------------------------------|


   E.   E.   E   E   E   E   E      E   E   E   E   S  S  S  S  E   E   
------------------------14--16--|--------------------------------------|
----------------17--17----------|--16--16--16--16--16-16----16---------|
--16---16---16------------------|------------------------17--------15--|
--------------------------------|------------------------------17------|


   E   E   E   E   S  S  S  S  S  S  S  S  
------------------------------------------|
--15--15--15--15--15-15----15-------------|
------------------------17----17----15-17-|
---------------------------------18-------|


   E   E   E   S  S S  E   S  E   E      E.   E.   E   E   E   E   E   
-----------------13---13--13-15--17--|------------------------14--16--|
--13--13--13--13---------------------|----------------17--17----------|
-------------------------------------|--16---16---16------------------|
-------------------------------------|--------------------------------|


   W                    W                    W                 
--------------------|--------------------|--------------------|
--------------------|--------------------|--------------------|
--15----------------|--13----------------|--12----------------|
--------------------|--------------------|--------------------|


   Q.      S  S  S  S  S  S S  S  S  S     Q    S  S  S  S  S  S  S  S S  S E   
----------------------15-16------------|-------------------------15-14---12----|
---------------------------------------|----------------------13---------------|
-------------15----17------------15-17-|--15------------13-15------------------|
--16------16----18------------18-------|----------13-15------------------------|


   Q    S  S  S  S  S  S  S  S S  S E      Q    S  S  S  S  S  S  S  S S  S E   
-------------------------15-14---12----|-------------------------15-14---12----|
----------------------13---------------|----------------------13---------------|
--13------------13-15------------------|--12------------13-15------------------|
----------13-15------------------------|----------13-15------------------------|


   Q    E   S  S  Q    Q        Q     Q     Q     Q     
--------------13------------|--------------------------|
-----------13----------9----|--10----10----10----10----|
--11-------------13---------|--------------------------|
----------------------------|--------------------------|


   Q     Q    Q    Q       Q    Q    Q    Q        E.   E.  Q     E.  E.   
------------------------|----------------------|--------------------------|
------------------------|----------------------|------------9---------9---|
--10----10---------6----|--8----8----9----9----|--10---12--------10-------|
--------------8---------|----------------------|--------------------------|


   E   E   S  S  S  S S  S  S S  S  S  E      E.   E.   Q     E   E   E   
------17--------17---------17-L-------17--|------------------------------|
------------------------------------------|----------------------17------|
--15------15-15----15-L-15------15-15-----|-------14---15----15------15--|
------------------------------------------|--15--------------------------|

                                                                      da Segno
   E   E   S  S  S  S S  S  S S  S  S  E      E   E   E   E   E   E   E   E    
------------------------------------------|----------------------------------||
------15--------15---------16-L-------16--|------17------17------17------17--||
------------------------------------------|----------------------------------||
--13------13-13----14-L-14------14-14-----|--15------15------15------15------||




Duration Legend
---------------
W - whole
H - half
Q - quarter
E - 8th
S - 16th
T - 32nd
X - 64th
. - note dotted
|-n-|  - n-tuplets


Tablature Legend
----------------
L - tied note
x - dead note
g - grace note
(n) - ghost note
> - accentuded note
NH - natural harmonic
AH - artificial harmonic
TH - tapped harmonic
SH - semi harmonic
PH - pitch harmonic
h - hammer on
p - pull off
b - bend
br - bendRelease
pb - preBend
pbr - preBendRelease
brb - bendReleaseBend
\n/ - tremolo bar dip
\n - tremolo bar dive
-/n - tremolo bar Release up
/n\ - tremolo bar inverted dip
/n - tremolo bar return
-\n - tremolo bar Release down
S - shift slide
s - legato slide
/ -  slide into from below or out of upwards
\ -  slide into from above or out of downwards
~ - vibrato
W - wide vibrato
tr - trill
TP - tremolo picking
T - tapping
S - slap
P - pop
< - fade in
^ - brush up
v - brush down

Login or Register to remove this ad.

1 comment on Aquarius

woot keep it up Rex!

woot keep it up Rex!