Awake (Castlevania: Circle of The Moon) Guitar Tab

Submitted: Feb 02, 2011 by Tabsarnack

5
Average: 5 (2 votes)
Download | Listen
Game: Castlevania: Circle of The Moon
Composer(s): Konami Kukeiha Club
Style: Arrangement, Fingerstyle
Series: Castlevania

AutoScroll: Slow | Medium | Fast
Title: Awake
SubTitle: Castlevania - Circle Of The Moon
Tabbed by Tabsarnack
Music: Konami Kuheika Club
Copyright: Konami
Arrangement by Tabsarnack

Legend
L - tied note
x - dead note
h - hammer on/pull off
b - bend
s - slide
~ - vibrato
g - ghost note
> - accentuated note
t - trill
M - palm mute
. - staccato
P - popping (bass)
S - slapping (bass)
+ - tapping
W - wide vibrato
< - fade in
w - whammy bar
= - tremolo picking
v - brush up
^ - brush down
V - pick stroke up
n - pick stroke down

                                                        
E |----------------------------------------------------|
B |--5--------------5--3L----3-------------------------|
G |--------7--5L-5-----------------2L----2-----2--4----|
D |--7--------5L-5-----4L----4-------------------------|
A |----------------------------------------------------|
E |----------------------------------------------------|

                                                                                
--------------------------------------------------------------0-----------------
--------------------------------------1L----------1-----------------3-----1-----
--5-----4-----2-----4L----4-----------2L----------2-----------------------------
--3-----------------5L----5-----5-----------------------------------------------
--------------------------------------------------------------------------------
--------------------------------------------------------------------------------

                                                                          
--------------------|----------------------------------------------------|
1h-3--0-------------|--5-----3--------5--3L----3--------------------0----|
------------0-------|-----------5L-5-----------------2L----2-----2-------|
--------------------|----------------------------------------------------|
--------------------|--0-------------------------------------------------|
--------------------|-----------3L-3-----2L----2-------------------------|

                                                     
----------------------------------------------------|
--1--0-----0L-0-----2L----2-------------------------|
--------2--------0--2L----2-------------------------|
----------------------------------------------------|
--------------------0L----0-------------------------|
--1--------3L-3-------------------------------------|

                                                          
--5--------5--------5-------|-----5--------5-------------|
-----5--------5--------4----|--------4--------4----------|
--------2--------2----------|--2--------2--------5--2----|
----------------------------|----------------------------|
--0-------------------------|----------------------------|
----------------------------|----------------------------|

                                                          
--5--------5--------5-------|-----4--------4-------------|
-----5--------5--------5----|--------3--------3----------|
--------2--------2----------|--4--------4--------4-------|
----------------------------|--2-------------------------|
--0-------------------------|----------------------------|
----------------------------|-----------------------12s--|

                                                     
--------------------------2--------3L-3-------------|
--5-----------------------------------------5-------|
--------------2-------------------------------------|
----------------------------------------------------|
--0-----------0-----------0-----------0-------------|
----------------------------------------------------|

                                                     
--2-----------0-------------------------------------|
--------------------------3-------------------------|
-----------------------------------2L-2-----4-------|
--0-----------0-----------0-----------0-----2-------|
----------------------------------------------------|
----------------------------------------------------|

                                                     
--------------------0-------------------------------|
--1--------3--------------3--------1--------0-------|
--------------------------0-----------0-------------|
--0-----------0-------------------------------------|
----------------------------------------------------|
----------------------------------------------------|

                                                     
----------------------------------------------------|
--1-----------------------3--------3--------3-------|
--2-----------------------2--------2--------2-------|
--------------------------4-------------------------|
--0-----------0-----------5-----------5-------------|
----------------------------------------------------|

                                                     
--------------------------2--------3L-3-----0-------|
--5-------------------------------------------------|
--------------2-------------------------------------|
----------------------------------------------------|
--0-----------0-----------0-----------0-------------|
----------------------------------------------------|

                                                     
--------------------------8--------7L-7-------------|
--7-----------------------------------------9-------|
--------------7-------------------------------------|
--0-----------0-----------0-----------0-------------|
----------------------------------------------------|
----------------------------------------------------|

                                                     
----------------------------------------------------|
--10----------------10h9--7--------9--------10------|
----------------------------------------------------|
----------------------------------------------------|
--6-----------6-------------------------------------|
--------------------------7-----------7-------------|

                                                     
----------------------------------------------------|
--9--------------------------------9--------1h-3----|
--9--------------------------------9----------------|
----------------------------------------------------|
--7-----------7-----------7-----------7-------------|
----------------------------------------------------|

                                                     
--------------------------2--------3L-3-------------|
--5-----------------------------------------5-------|
--------------2-------------------------------------|
----------------------------------------------------|
--0-----------0-----------0-----------0-------------|
----------------------------------------------------|

                                                     
--2-----------0-------------------------------------|
--------------------------3-------------------------|
-----------------------------------2L-2-----4-------|
--0-----------0-----------0-----------0-----2-------|
----------------------------------------------------|
----------------------------------------------------|

                                                     
--------------------0-------------------------------|
--1--------3--------------3--------1--------0-------|
--------------------------0-----------0-------------|
--0-----------0-------------------------------------|
----------------------------------------------------|
----------------------------------------------------|

                                                     
----------------------------------------------------|
--1-----------------------3--------3--------3-------|
--2-----------------------2--------2--------2-------|
--------------------------4-------------------------|
--0-----------0-----------5-----------5-------------|
----------------------------------------------------|

                                                     
--------------------------2--------3L-3-----0-------|
--5-------------------------------------------------|
--------------2-------------------------------------|
----------------------------------------------------|
--0-----------0-----------0-----------0-------------|
----------------------------------------------------|

                                                     
--------------------------8--------7L-7-------------|
--7-----------------------------------------9-------|
--------------7-------------------------------------|
--0-----------0-----------0-----------0-------------|
----------------------------------------------------|
----------------------------------------------------|

                                                                      
----------------------------------------------------|--------5--7----|
--10----------------10h9--7--------9--------10------|--9-----7--7----|
----------------------------------------------------|--9-------------|
----------------------------------------------------|----------------|
--6-----------6-------------------------------------|--7--7--5--5----|
--------------------------7-----------7-------------|----------------|

                                                     
--4--------------------------------4--------4-------|
--5--------------------------------5--------5-------|
----------------------------------------------------|
--2-----------2-----------2-----------2-------------|
----------------------------------------------------|
----------------------------------------------------|

                                                     
-----------0-----------0-----------0-----------4----|
--------3-----------3-----------3-----------3-------|
-----1-----------4-----------4-----------4----------|
--2-------------------------------------------------|
--------------2-------------------------------------|
--------------------------4-----------0-------------|

                                                     
----------------------------------------------------|
--6--------5--------3-------------------------------|
--------------------------2-------------------------|
--0-----------0-----------0-----------0-------------|
----------------------------------------------------|
----------------------------------------------------|

                                                     
----------------------------------------------------|
--6--------5--------3-------------------------------|
--------------------------4-----------------2h-4----|
--2-----------2-------------------------------------|
----------------------------------------------------|
--------------------------4-----------4-------------|

                                                     
----------------------------------------------------|
--1-----------------0h-1--3-----------------1h-3----|
----------------------------------------------------|
----------------------------------------------------|
--0-----------0-------------------------------------|
--------------------------4-----------4-------------|

                                                     
--0-----------------------0--------0--------0-------|
----------------------------------------------------|
--------------------------6--------6--------6-------|
----------------------------------------------------|
--3-----------3-----------4-----------4-------------|
----------------------------------------------------|

                                                     
----------------------------------------------------|
--6--------5--------3-------------------------------|
--------------------------2-------------------------|
--0-----------0-----------0-----------0-------------|
----------------------------------------------------|
----------------------------------------------------|

                                                     
----------------------------------------------------|
--6--------5--------3-------------------------------|
--------------------------4-----------------2h-4----|
--2-----------2-------------------------------------|
----------------------------------------------------|
--------------------------4-----------4-------------|

                                                     
----------------------------------------------------|
--1--------0--------1-----3--------1--------3-------|
----------------------------------------------------|
----------------------------------------------------|
--0-----------0-------------------------------------|
--------------------------3-----------3-------------|

                                                     
--------------------------2-----------------2-------|
--5--------4--------5--------------5----------------|
----------------------------------------------------|
----------------------------------------------------|
--3-----------3-----------2-----------2-------------|
----------------------------------------------------|

                                                     
--4--------------------------------4--------4-------|
--5--------------------------------5--------5-------|
----------------------------------------------------|
--2-----------2-----------2-----------2-------------|
----------------------------------------------------|
----------------------------------------------------|

                                                     
-----------0-----------0-----------0-----------4----|
--------3-----------3-----------3-----------3-------|
-----1-----------4-----------4-----------4----------|
--2-------------------------------------------------|
--------------2-------------------------------------|
--------------------------4-----------0-------------|

                                                     
----------------------------------------------------|
--5-----3--------5--3L----3--------------------0----|
-----------5L-5-----------------2L----2-----2-------|
----------------------------------------------------|
--0-----------------------------5L----5-------------|
--------0--3L-3--0--2L----2--------------------0----|

                                                                                
--------------------------------------------------------------0-----------------
--1-----0-----------0L----0-----------1L----------1-----------------3-----1-----
--------------2-----------------0-----2L----------2-----------------------------
--------------------------------0-----------------------------------------------
--------------3-----------------------0L----------0-----------------------------
--1-----------------3L----3-----------------------------------------------------

                                                                          
--------------------|----------------------------------------------------|
1h-3--0-------------|--5-----3--------5--3L----3--------------------0----|
------------0-------|-----------5L-5-----------------2L----2-----2-------|
--------------------|----------------------------------------------------|
--------------------|--0-----------------------------5L----5-------------|
--------------------|--------0--3L-3--0--2L----2--------------------0----|

                                                                                
--------------------------------------------------------------0-----------------
--1-----0-----------0L----0-----------1L----------1-----------------3-----1-----
--------------2-----------------0-----2L----------2-----------------------------
--------------------------------0-----------------------------------------------
--------------3-----------------------0L----------0-----------------------------
--1-----------------3L----3-----------------------------------------------------

                                                                          
--------------------|--------------------2L----2--------------------0----|
1h-3--0-------------|--5-----3--------5--------------3L----3-----3-------|
------------0-------|-----------5L-5-------------------------------------|
--------------------|----------------------------------------------------|
--------------------|--0-----------------------------5L----5-------------|
--------------------|--------0--3L-3--0--2L----2--------------------0----|

                                                                                
--1-----0-----------------------3-----0L----------0-----------0-----------------
--------------3-----5L----5-----------1L----------1-----------------3-----1-----
--------------------------------------------------------------------------------
--------------------------------------------------------------------------------
--------------3-----------------5-----0L----------0-----------------------------
--1-----------------3L----3-----------------------------------------------------

                                                                          
--------------------|--------------------2L----2-------------------------|
1h-3--0-------------|--5-----3--------5--------------3L----3-----10-12---|
------------0-------|-----------5L-5-------------------------------------|
--------------------|----------------------------------------------------|
--------------------|--0-----------------------------5L----5-------------|
--------------------|--------0--3L-3--0--2L----2--------------------0----|

                                                     
--8-------------------------------------------------|
-----12-10-12L12----10L---10------------------------|
-----------------12-9L----9-------------------------|
--------------------10L---10------------------------|
--8--------10L10----0L----0-----------0-------------|
--------8--------10---------------------------------|

                                                     
-----------------------------------------------7----|
-----------------------------------10-------7-------|
--------------------------------9--------8----------|
-----------------------------10-------9-------------|
--0-----------0-----------0-------------------------|
----------------------------------------------------|

                                                     
-----------4-----------0L-0-------------------------|
--------5-----------3L-3L-3-------------------------|
-----7-----------1L-1L-1L-1-------------------------|
--6-----------2L-2L-2L-2L-2-------------------------|
----------------------------------------------------|
--------------------------------------------12s-----|

                                                     
--------------------------2--------3L-3-------------|
--5-----------------------------------------5-------|
--------------2-------------------------------------|
----------------------------------------------------|
--0-----------0-----------0-----------0-------------|
----------------------------------------------------|

                                                     
--2-----------0-------------------------------------|
--------------------------3-------------------------|
-----------------------------------2L-2-----4-------|
--0-----------0-----------0-----------0-----2-------|
----------------------------------------------------|
----------------------------------------------------|

                                                     
--------------------0-------------------------------|
--1--------3--------------3--------1--------0-------|
--------------------------0-----------0-------------|
--0-----------0-------------------------------------|
----------------------------------------------------|
----------------------------------------------------|

                                                     
----------------------------------------------------|
--1-----------------------3--------3--------3-------|
--2-----------------------2--------2--------2-------|
--------------------------4-------------------------|
--0-----------0-----------5-----------5-------------|
----------------------------------------------------|

                                                     
--------------------------2--------3L-3-----0-------|
--5-------------------------------------------------|
--------------2-------------------------------------|
----------------------------------------------------|
--0-----------0-----------0-----------0-------------|
----------------------------------------------------|

                                                     
--------------------------8--------7L-7-------------|
--7-----------------------------------------9-------|
--------------7-------------------------------------|
--0-----------0-----------0-----------0-------------|
----------------------------------------------------|
----------------------------------------------------|

                                                     
----------------------------------------------------|
--10----------------10h9--7--------9--------10------|
----------------------------------------------------|
----------------------------------------------------|
--6-----------6-------------------------------------|
--------------------------7-----------7-------------|

                                                     
----------------------------------------------------|
--9--------------------------------9-----------5----|
--9-----------------------------7-----------4-------|
-----------------------------9-----------6----------|
--7-----------7-----------7-------------------------|
--------------------------------------4-------------|

                                                     
--------------------------2--------3L-3-------------|
--5-----------------------------------------5-------|
--------------2-------------------------------------|
----------------------------------------------------|
--0-----------0-----------0-----------0-------------|
----------------------------------------------------|

                                                     
--2-----------0-------------------------------------|
--------------------------3-------------------------|
-----------------------------------2L-2-----4-------|
--0-----------0-----------0-----------0-----2-------|
----------------------------------------------------|
----------------------------------------------------|

                                                     
--------------------0-------------------------------|
--1--------3--------------3--------1--------0-------|
--------------------------0-----------0-------------|
--0-----------0-------------------------------------|
----------------------------------------------------|
----------------------------------------------------|

                                                     
-----------------------------------0-----------0----|
--1--------------------1--------3-----------3-------|
--2--------------------2-----2-----------1----------|
----------------------------------------------------|
--0-----------0-------------------------------------|
--------------------------2-----------4-------------|

                                                     
--------------------------2--------3L-3-----0-------|
--5-------------------------------------------------|
--------------2-------------------------------------|
----------------------------------------------------|
--0-----------0-----------0-----------0-------------|
----------------------------------------------------|

                                                     
--------------------------8--------7L-7-------------|
--7-----------------------------------------9-------|
--------------7-------------------------------------|
--0-----------0-----------0-----------0-------------|
----------------------------------------------------|
----------------------------------------------------|

                                                                      
----------------------------------------------------|--------5--7----|
--10----------------10h9--7--------9--------10------|--9-----7--7----|
----------------------------------------------------|--9-------------|
----------------------------------------------------|----------------|
--6-----------6-------------------------------------|--7--7--5--5----|
--------------------------7-----------7-------------|----------------|

                                                     
--4--------------------------------4--------4-------|
--5--------------------------------5--------5-------|
----------------------------------------------------|
--2-----------2-----------2-----------2-------------|
----------------------------------------------------|
----------------------------------------------------|

                                                     
-----------0-----------0-----------0-----------4----|
--------3-----------3-----------3-----------3-------|
-----1-----------4-----------4-----------4----------|
--2-------------------------------------------------|
--------------2-------------------------------------|
--------------------------4-----------0-------------|

                                                     
----------------------------------------------------|
--6--------5--------3-------------------------------|
--------------------------2-------------------------|
--0-----------0-----------0-----------0-------------|
----------------------------------------------------|
----------------------------------------------------|

                                                     
----------------------------------------------------|
--6--------5--------3-------------------------------|
--------------------------4-----------------2h-4----|
--2-----------2-------------------------------------|
----------------------------------------------------|
--------------------------4-----------4-------------|

                                                     
----------------------------------------------------|
--1-----------------0h-1--3-----------------1h-3----|
----------------------------------------------------|
----------------------------------------------------|
--0-----------0-------------------------------------|
--------------------------4-----------4-------------|

                                                     
--0-----------------------0--------0--------0-------|
----------------------------------------------------|
--------------------------6--------6--------6-------|
----------------------------------------------------|
--3-----------3-----------4-----------4-------------|
----------------------------------------------------|

                                                     
----------------------------------------------------|
--6--------5--------3-------------------------------|
--------------------------2-------------------------|
--0-----------0-----------0-----------0-------------|
----------------------------------------------------|
----------------------------------------------------|

                                                     
----------------------------------------------------|
--6--------5--------3-------------------------------|
--------------------------4-----------------2h-4----|
--2-----------2-------------------------------------|
----------------------------------------------------|
--------------------------4-----------4-------------|

                                                     
----------------------------------------------------|
--1--------0--------1-----3--------1--------3-------|
----------------------------------------------------|
----------------------------------------------------|
--0-----------0-------------------------------------|
--------------------------3-----------3-------------|

                                                     
--------------------------2-----------------2-------|
--5--------4--------5--------------5----------------|
----------------------------------------------------|
----------------------------------------------------|
--3-----------3-----------2-----------2-------------|
----------------------------------------------------|

                                                     
--4--------------------------------4--------4-------|
--5--------------------------------5--------5-------|
----------------------------------------------------|
--2-----------2-----------2-----------2-------------|
----------------------------------------------------|
----------------------------------------------------|

                                                     
-----------0-----------0-----------0-----------4----|
--------3-----------3-----------3-----------3-------|
-----1-----------4-----------4-----------4----------|
--2-------------------------------------------------|
--------------2-------------------------------------|
--------------------------4-----------0-------------|

                                                     
----------------------------------------------------|
--5-----3--------5--3L----3--------------------0----|
-----------5L-5-----------------2L----2-----2-------|
----------------------------------------------------|
--0-----------------------------5L----5-------------|
--------0--3L-3--0--2L----2--------------------0----|

                                                                                
--------------------------------------------------------------0-----------------
--1-----0-----------0L----0-----------1L----------1-----------------3-----1-----
--------------2-----------------0-----2L----------2-----------------------------
--------------------------------0-----------------------------------------------
--------------3-----------------------0L----------0-----------------------------
--1-----------------3L----3-----------------------------------------------------

                                                                          
--------------------|----------------------------------------------------|
1h-3--0-------------|--5-----3--------5--3L----3--------------------0----|
------------0-------|-----------5L-5-----------------2L----2-----2-------|
--------------------|----------------------------------------------------|
--------------------|--0-----------------------------5L----5-------------|
--------------------|--------0--3L-3--0--2L----2--------------------0----|

                                                     
----------------------------------------------------|
--1--0-----0L-0-----1L----1-------------------------|
--------2--------0--2L----2-------------------------|
-----------------0----------------------------------|
--------3-----------0L----0-------------------------|
--1--------3L-3-------------------------------------|

                                                     
----------------------------------------------------|
--5--------------5--3L----3-------------------------|
--------7--5L-5-----------------2L----2-----2--4----|
--7--------5L-5-----4L----4-------------------------|
----------------------------------------------------|
----------------------------------------------------|

                                                     
----------------------------------------------------|
--------------------1L----1-------------------------|
--5--4--2--4L-4-----2L----2-------------------------|
--3--------5L-5--5----------------------------------|
----------------------------------------------------|
----------------------------------------------------|

                                                     
----------------------------------------------------|
--5-----3--------5--3L----3--------------------0----|
-----------5L-5-----------------2L----2-----2-------|
----------------------------------------------------|
--0-------------------------------------------------|
-----------3L-3-----2L----2-------------------------|

                                                       ^
----------------------------------------------------|--7----||
--1--0-----0L-0-------------------------------------|--10---||
--------2--------12L------12------------------------|--9----||
----------------------------------------------------|--10---||
----------------------------------------------------|--0----||
--1--------3L-3-------------------------------------|-------||
Login or Register to remove this ad.

1 comment on Awake

the timing/tied notes in this

the timing/tied notes in this confuses me a bit. I'm not exactly sure how to play this