Hammer (Castlevania: Aria of Sorrow) Bass/Guitar Tab

Submitted: Mar 01, 2012 by auriplane

5
Average: 5 (1 vote)
Download | Listen
Game: Castlevania: Aria of Sorrow
Composer(s): Michiru Yamane
Style: 2 or more instruments, Alternate picking, Transcription
Series: Castlevania

AutoScroll: Slow | Medium | Fast
        Castlevania Aria of Sorrow - Hammer GUITAR & BASS TAB
     Composed by Michiru Yamane, Takashi Yoshida, Soshiro Hokkai

                Tabbed by auriplane ([email protected])



                              RHYTHM GUITAR
    Intro & Part A

e |----------------|----------------|----------------|----------------|
B |----------------|----------------|----------------|----------------|
G |----------------|----------------|----------------|----------------| x4
D |----------------|----------------|----------------|----------------|
A |--------3-------|----6-5---3-----|--------3-------|----------------|
E |5-5-5-5-----3-5-|--5-----------3-|5-5-5-5---5---3-|--2---3---4---0-|

    Part B Rhythm

e |----------------|----------------|----------------|----------------|
B |----------------|----------------|----------------|----------------|
G |----------------|----------------|5-----2---------|----------------|
D |5-3-------------|--------5---3-5-|------------6---|--5-----3-------|
A |------------5-3-|------5---5-----|----------------|------------5---|
E |----------------|----------------|----------------|----------------|

e |----------------|----------------|----------------|----------------|
B |----------------|----------------|----------------|----------------|
G |----------------|----------------|----------------|----------------|
D |5---------------|----------------|------------2---|----------------|
A |------3-----6---|--5-----3---5-4-|5-----4---------|--6-----5---3---|
E |----------------|----------------|----------------|----------------|

e |----------------|----------------|
B |----------------|----------------|
G |--------------3-|----------------|
D |------------5---|----------------|
A |2---------2-----|----------4-----|
E |----------------|----------------|





                              LEAD GUITAR
    Part A

e |8-----5---------|----------5-----|8---------------|----------------|
B |------------8---|--8-7-8---------|------8-----7---|----------------|
G |----------------|----------------|----------------|----------------| x2
D |----------------|----------------|----------------|----------------|
A |----------------|----------------|----------------|----------------|
E |----------------|----------------|----------------|----------------|

    Part B

e |8---------------|----------------|8---------------|----------------|
B |------10----9---|--8---8---9---10|------10----9---|----------------|
G |----------------|----10----------|----------------|----------------|
D |----------------|----------------|----------------|----------------|
A |----------------|----------------|----------------|----------------|
E |----------------|----------------|----------------|----------------|

e |8---------------|----------8-----|--------------9-|10------1310----|
B |------10----9---|--8---9-10--9-8-|------9---10----|----9-10----1413|
G |----------------|----------------|10--------------|----------------|
D |----------------|----------------|----------------|----------------|
A |----------------|----------------|----------------|----------------|
E |----------------|----------------|----------------|----------------|

e |----------11----|--10--------9---|
B |12------11--10--|9----8----7---6-|
G |----------------|----------------|
D |----------------|----------------|
A |----------------|----------------|
E |----------------|----------------|



                             HARMONY GUITAR
    Part A

e |----------------|----------------|----------------|----------------|
B |8-----5---------|----------5-----|8---------------|----------------|
G |------------8---|--8-6-8---------|------8-----7---|----------------| x2
D |----------------|----------------|----------------|----------------|
A |----------------|----------------|----------------|----------------|
E |----------------|----------------|----------------|----------------|

    Part B

e |----------------|----------------|----------------|----------------|
B |----------------|----------------|6---------------|----------------|
G |7-5-------------|--------7---5-7-|------5-----8---|--7-----5-------|
D |------------7-6-|------7---7-----|----------------|------------7---|
A |----------------|----------------|----------------|----------------|
E |----------------|----------------|----------------|----------------|

e |----------------|----------------|----------------|----------------|
B |----------------|----------------|----------------|----------------|
G |5---------------|----------------|----------------|----------------|
D |------7-----6---|--5---------7-6-|7-----5-----6---|--5-------------|
A |----------------|--------8-------|----------------|--------9---8---|
E |----------------|----------------|----------------|----------------|

e |----------------|----------------|
B |----------------|----------------|
G |------------5-8-|----------------|
D |----------------|----------4-----|
A |7---------------|----------------|
E |----------------|----------------|



                                   BASS  
    Intro & Part A

G |----------------|----------------|----------------|----------------|
D |----------------|----------------|----------------|----------------| x4
A |--------------3-|--3-------------|--------------3-|--3-------------|
E |5-----5---5-----|----5-3---3---0-|5-----5---5-----|----5-3---2---3-|

    Part B

G |----------------|----------------|----------------|----------------|
D |----------3-----|------3-------3-|----------------|----------------|
A |5---3-5-----3-5-|----------5-3---|5-----5---3-5---|--3-5-----5-3---|
E |----------------|--4-5-----------|--------------5-|------4---------|

G |----------------|----------------|----------------|----------------|
D |----------------|--3-------------|------3---------|------------3---|
A |----------------|--------3---4---|5-----------3---|--4-5---------3-|
E |5-----4-----3---|----------------|----------------|------4---3-----|

G |----------------|----------------|
D |2---0-2---------|----------------|
A |--2---------2-3-|----------2-----|
E |----------0-----|--5---4-------6-|

Login or Register to remove this ad.

5 comments on Hammer

Yay castlevania!You ever

5

Yay castlevania!

You ever think of doing Successor of Fate from Harmony of Dissonance?

I've always wondered why

I've always wondered why nobody has ever taken the time to tab this out...

Umm... it's hard! XD

Umm... it's hard! XD

It'll fit neatly in 24 frets

It'll fit neatly in 24 frets if I move everything down a semitone. I think it'll come together if I do that... @[email protected]; It's either that or move a lot of stuff down an octave, or put in some really awkward bends.

EDIT: Ooh, I can just pull on the whammy bar for one note. :-)

Okay I did it!