A Requiem (Castlevania 2) Guitar Tab

Submitted: Aug 10, 2014 by ltm_1988 (Last updated: Aug 14, 2014)

0
Download | Listen
Game: Castlevania 2
Composer(s): Club Kukeiha
Style: Arrangement, Fingerstyle
Series: Castlevania

This song is also called Ending Theme

AutoScroll: Slow | Medium | Fast
A Requiem (Ending Theme)
Castlevania II: Simon's Quest
Kenichi Matsubara, Satoe Terashima
ltm_1988
8/7/2014

    H               Q       Q         Q.          S S H
E||-------------------------3-------|---------------------------------|
B||-1-------------------------------|-3-------------------------------|
G||-----------------0---------------|-------------0---0---------------|
D||---------------------------------|---------------3-----------------|
A||-3-----------------------3-------|-3-----------2-0-2---------------|
E||---------------------------------|-3-------------------------------|

    H               Q       E   E     Q.          S S Q       Q
E||-------------------------4-------|-3-------------------------------|
B||-0---------------3---------------|-------------1-0-1---------------|
G||-----------------1---------------|-------------------------0-------|
D||-0---------------------------0---|-3-----------2-0-2---------------|
A||-------------------------2-------|-3-------------------------------|
E||-3-------------------------------|---------------------------------|

    E   E   Q       E   E   E   E     E   E   Q       E   E   E   E
E||-0---------------3---------------|-3-------4-----------------------|
B||-----------------1---------------|-------------------------1-------|
G||-0---0---------------------------|-3---1---1-----------3---1---1---|
D||-2-------2-------2-------0---2---|-3-------3-------3---5-------3---|
A||---------------------3-----------|---------------------------------|
E||---------------------------------|---------------------------------|

    E   E   Q       E   E   E   E     E   E   Q       E   E   E   E
E||-----------------1---------------|-1-------3-----------------------|
B||-3-------------------------------|---------------------------------|
G||-----3-----------3---------------|-1---3---0-----------1---3---0---|
D||-3---------------0---1---3---3---|-1-------1-------1---3---5---1---|
A||-5-------5-------------------5---|---------------------------------|
E||---------------------------------|---------------------------------|

    E   E   E   E   E   E   E   E     E   E   E   S S E   E   E   E
E||-4-------------------3---1-------|-3-------------------1---0---1---|
B||-----------------------------4---|---------------------------------|
G||-------------1---------------1---|-0-------------------------------|
D||---------1-------6-------1-------|-------------3-2-3-----------3---|
A||-6---3---------------3-----------|---------4---------------4-------|
E||-4---------------4---------------|-1---4-----------1---4-----------|

    E   E   E   E   E   E   E   S S   E   S S E   S S E   E   E   E
E||-----------------------------1---|-1-------------------------------|
B||-1-------------------1---3---3-1-|-0---3-1-0---3-1-0---------------|
G||-0---------------0---------------|-0-------------------------------|
D||---------0---3---3---------------|---------------------0---1---3---|
A||-----3---------------------------|---------------------1---3---5---|
E||-3-------------------------------|---------------------------------|

    H               Q       Q         Q.          S S Q       Q
E||---------------------------------|---------------------------------|
B||---------------------------------|---------------------------------|
G||-----------------3-------3-------|-------------3-1-3---------------|
D||-1-----------------------1-------|-3-----------0---0---------------|
A||---------------------------------|-6-------------3---------1-------|
E||---------------------------------|-6-------------------------------|

    H               Q       E   E     Q.          S S Q       Q
E||---------------------------------|---------------------------------|
B||-----------------0-------0-------|-------------4-3-4---------------|
G||---------------------------------|-3-----------0---0-------3-------|
D||-3---------------3-------0---3---|-6-------------3-----------------|
A||-5-------------------------------|-6-------------------------------|
E||-6-------------------------------|---------------------------------|

    E   E   Q       E   E   E   E     E   E   Q       E   E   E   E
E||---------------------------------|---------------------------------|
B||-----------------4---------------|-2-------0-----------2---4---0---|
G||-3---3---0-------3---------------|-3---4---1-------1---3---5---1---|
D||-5---------------5---1---3---5---|-6-------------------------------|
A||---------------------------------|---------------------------------|
E||---------------------------------|---------------------------------|

    E   E   Q       E   E   E   E     E   E   Q       E   E   E   E
E||---------------------------------|---------------------------------|
B||-----2-----------2---------------|-0---2---------------0---2-------|
G||-1---------------1-------1---1---|-1-------3-----------1---3---3---|
D||-3-------3-------3---4-------3---|-4-------4-------4-----------4---|
A||---------------------------------|---------------------------------|
E||---------------------------------|---------------------------------|

    E   E   E   E   E   E   E   E     E   E   E   S S E   E   E   E
E||---------------------6---4---2---|---------------------4---3---4---|
B||-0---------------0---------------|---------------------------------|
G||-------------4---------------4---|-3-----------1-0-1-----------1---|
D||-4---1---4---------------4-------|---------2---------------2-------|
A||-2---------------2---6-----------|-----2---------------2-----------|
E||---------------------------------|-4---------------4---------------|

    E   E   E   E   E   E   E   S S   E   S S E   S S E   E   E   E
E||-------------------------1---4---|-4---1-------1-------------------|
B||-4-------------------4-------6-4-|-3-----4-3-----4-3---------------|
G||-3-----------1---3---------------|-3-------------------------------|
D||-----1---3-------6---------------|-----------------------------0---|
A||-1-------------------------------|---------------------2---3---2---|
E||---------------------------------|---------------------3---5-------|

    H               Q       Q         Q.          S S Q       Q
E||-------------------------3-------|---------------------------------|
B||-1-------------------------------|-3-------------------------------|
G||-----------------0---------------|-------------0---0---------------|
D||---------------------------------|---------------3-----------------|
A||-3-----------------------3-------|-3-----------2-0-2---------------|
E||---------------------------------|-3-----------------------3-------|

    H               Q       E   E     Q.          S S Q       Q
E||-------------------------4-------|-3-------------------------------|
B||-0---------------3---------------|-------------1-0-1---------------|
G||-----------------1---------------|-------------------------0-------|
D||-0---------------------------0---|-3-----------2-0-2---------------|
A||-------------------------2-------|-3-------------------------------|
E||-3-------------------------------|---------------------------------|

    E   E   Q       E   E   E   E     E   E   Q       E   E   E   E
E||-0---------------3---------------|-3-------4-----------------------|
B||-----------------1---------------|-------------------------1-------|
G||-0---0---------------------------|-3---1---1-----------3---1---1---|
D||-2-------2-------2-------0---2---|-3-------3-------3---5-------3---|
A||---------------------3-----------|---------------------------------|
E||---------------------------------|---------------------------------|

    E   E   Q       E   E   E   E     E   E   Q       E   E   E   E
E||-----------------1---------------|-1-------3-----------------------|
B||-3-------------------------------|---------------------------------|
G||-----3-----------3---------------|-1---3---0-----------1---3---0---|
D||-3---------------0---1---3---3---|-1-------1-------1---3---5---1---|
A||-5-------5-------------------5---|---------------------------------|
E||---------------------------------|---------------------------------|

    E   E   E   E   E   E   E   E     E   E   E   S S E   E   E   E
E||-4-------------------3---1-------|-3-------------------1---0---1---|
B||-----------------------------4---|---------------------------------|
G||-------------1---1-----------1---|-0-------------------------------|
D||---------1---------------1-------|-------------3-2-3-----------3---|
A||-6---3---------------3-----------|---------4---------------4-------|
E||-4---------------4---------------|-1---4-----------1---4-----------|

    E   E   E   E   E   E   E   S S   E   S S E   S S E   E   E   E
E||-----------------------------1---|-1-------------------------------|
B||-1-------------------1---3---3-1-|-0---3-1-0---3-1-0---------------|
G||-0---------------0---------------|-0-------------------------------|
D||---------0---3---3---------------|-----------------------------0---|
A||-----3---------------------------|---------------------2---3---2---|
E||-3-------------------------------|---------------------3---5-------|

    E   E   E   E   E   E   E   E     E   E   E   E   E   E   E   E
E||---------------------------------|-----------------1---------------|
B||-1-------------------------------|---------3---4-------3---1-------|
G||---------------------------------|-------------0---1-----------3---|
D||-1-------1-------0-------0-------|-1-------3-----------3---1---0---|
A||-3---3---3---3---1---1---1---1---|-3---------------1---1---1---1---|
E||---------------------------------|-4---4---4---4-------------------|

    E   E   E   E   E   E   E   E     E   E   E   E   E   E   E   E
E||---------------------------------|---------3---1-------1-----------|
B||-1-------------------------------|-----------------4-------3---4---|
G||---------------------------------|---------3---1---0---1-------0---|
D||-1-------1-------0-------0-------|-1-----------------------3-------|
A||-3---3---3---3---1---1---1---1---|-3---------------1---1---1---1---|
E||---------------------------------|-4---4---4---4-------------------|

    E   E   E   E   E   E   E   E     E   E   E   E   E   E   E   E
E||---------------------------------|-----------------1---------------|
B||-1-------------------------------|---------3---4-------3---1-------|
G||---------------------------------|-------------0---1-----------3---|
D||-1-------1-------0-------0-------|-1-------3-----------3---1---0---|
A||-3---3---3---3---1---1---1---1---|-3---------------1---1---1---1---|
E||---------------------------------|-4---4---4---4-------------------|

    E   E   E   E   E   E   E   E     E   E   E   E   E   E   E   E
E||---------------------------------|---------3---1-------1-----------|
B||-1-------------------------------|-----------------4-------3---4---|
G||---------------------------------|---------3---1---0---1-------0---|
D||-1-------1-------0-------0-------|-1-----------------------3-------|
A||-3---3---3---3---1---1---1---1---|-3---------------1---1---1---1---|
E||---------------------------------|-4---4---4---4-------------------|

    H               E   Q.            S Q.          S H                  W 
E||-1-------------------------------|-----------------0---------------||---
B||-1---------------1---3-----------|---------------------------------||---
G||---------------------5-----------|---------------------------------||---
D||-3-------------------0-----------|-----------------2---------------||---
A||-3-------------------------------|---3-------------3---------------||---
E||---------------------------------|---------------------------------||---
Login or Register to remove this ad.

2 comments on A Requiem

You should start using proper

You should start using proper duration markings in your tabs. The way you write it at the moment makes your tabs unnecessarily hard to follow.

For example:

    H               Q       Q         Q.          S S H
E||-------------------------3-----L-|---------------------------------|
B||-1---------------------L---------|-3---------L---------------------|
G||-----------------0-----L---------|-------------0---0-------------L-|
D||---------------------------------|---------------3-----------------|
A||-3---------------------L-3-----L-|-3---------L-2-0-2-------------L-|
E||---------------------------------|-3-------------------------L-----|

Ditto this so hard.

Ditto this so hard.