Bloody Tears (Castlevania 2) Guitar Tab

Submitted: Nov 05, 2011 by RyskaG

0
Download | Listen
Game: Castlevania 2
Composer(s): Club Kukeiha
Style: Fingerstyle, Transcription
Series: Castlevania

AutoScroll: Slow | Medium | Fast
Title:     Bloody Tears
Game:      Castlevania 2 - Simon's Quest
Composer:  Kenichi Matsubara
Year:      1988
Tabber:    RyskaG

Time measure 2/4

Note: in the first measure, play the notes 3 and 10 with 
your 3rd or 4th finger.
Any tips or suggestions regarding this tab are gladly welcomed.

                                                         
    S S S  S S S S S   S S S S S S S S   S S S S S S S S   S S S S S S S S
E||-3---10---8---6---|-5---6---5---3---|-5---6---8---6---|-5---1---5---3---|
B||------------------|-----------------|-----------------|-----------------|
G||------------------|-----------------|-----------------|-----------------|
D||---0----0---0---0-|---0---0---0---0-|---0---0---0---0-|---0---0---0---0-|
A||------------------|-----------------|-----------------|-----------------|
E||------------------|-----------------|-----------------|-----------------|

   S S S  S S S S S   S S S S S S S S   S S S S S S S S   S S S S S S S S
||-3---10---8---6---|-5---6---5---3---|-5---6---8---6---|-5---1---5---3-L-|
||------------------|-----------------|-----------------|-----------------|
||------------------|-----------------|-----------------|-----------------|
||---0----0---0---0-|---0---0---0---0-|---0---0---0---0-|---0---0---0-----|
||------------------|-----------------|-----------------|-----------------|
||------------------|-----------------|-----------------|-----------------|

   E  S S  Q      Q    E  E    E.  S  E  E     Q    E  E    E  S S Q
||----8---------|------3--1--|-3---8--L------|------------|----8-5-L----|
||-8----10-L----|------------|-5---10-L--10--|-L----8--6--|-8----6-L----|
||--------------|------------|-----------10--|-L----9--7--|-------------|
||--------------|------------|---------------|------------|-------------|
||--------------|------------|---------------|------------|-------------|
||--------------|------------|---------------|------------|-------------|

   Q    E  E    E  E  Q      E.  S Q
||------3--5--|-6--8--L----|-5---6-L----| 
||------------|-5----------|------------| 
||------------|----9--L----|-7---7-L----| 
||------------|------------|------------| repeat from measure 9 to 15,
||------------|------------|------------| then instead of measure 16
||------------|------------|------------| play this:

   E  E  E  E     E.  S E  E     E.  S E  E     E.  S E  E     S  S  S S  S  S  S  S
||-5--7--9--12--|-0--------10--|-0--------10--|-0--------10--|----13---12----10----8-|
||--------------|-----3-L------|-----3-L------|-----3-L------|-----------------------|
||-6--7--9--12--|-0--------10--|-0--------10--|-0--------10--|-10----9---------------|
||--------------|-----3-L------|-----3-L------|-----3-L------|------------12----10---|
||--------------|--------------|--------------|--------------|-----------------------|
||--------------|--------------|--------------|--------------|-----------------------|

   E  S S  Q      E  S S  Q      E  S S  Q      E   E   S  S  E
||-0----10-L----|-0----10-L----|-0----10-L----|-13--15--12-13-L--||
||----3---------|----3---------|----3---------|------------------||
||-0----10-L----|-0----10-L----|-0----10-L----|------------------||
||----3---------|----3---------|----3---------|------------------||
||--------------|--------------|--------------|------------------|| repeat from
||--------------|--------------|--------------|------------------|| the beginning


Duration Legend
---------------
W - whole
H - half
Q - quarter
E - 8th
S - 16th
L - tied note
. - dotted note
Login or Register to remove this ad.

2 comments on Bloody Tears

Instead of jumping from 3 to

Instead of jumping from 3 to 10 you can just play the 3 as an 8 on the b string. Can also move the 1 to a 6 so that you stay in the same general area.

thx, I'll try it out.

thx, I'll try it out.

edit: it's better to leave the notes as they are, sounds better.
PS: in the ending where the notes 3 & 10 are on two strings at the same time, I just barre them with my 1st finger.