Login or Register to remove this ad.

Chromatic Fantasia (Castlevania 2: Belmont's Revenge) Guitar Tab

Submitted: Oct 11, 2011 by Kabukibear

5
Average: 5 (6 votes)
Download | Listen
Game: Castlevania 2: Belmont's Revenge
Composer(s): Hidehiro Funauchi
Style: Arrangement, Fingerstyle, Transcription
Series: Castlevania

This song is also called Battle with Soleiyu

AutoScroll: Slow | Medium | Fast

Chromatic Fantasia                                
~Castlevania II - Belmont's Revenge~
Composed by: J.S. Bach (H. Funauchi)
Arranged by: Justin Lincoln

Rubato

     T T T T T T T T T T T T T T T T T T T T T T T T Q     
E||------------------------------------------------0-L----|
B||----------------2-3------------------------------------|
G||----------0-2-4-----5-3-2-0---------------0-2-3--------|
D||----0-2-3-------------------3-2-0---0-2-3--------------|
A||----------------------------------4--------------------|
E||-------------------------------------------------------|


  T T T T T T T T T T T T T T T T T T T T T T T T Q     
------------0-1-3-1-0---------------------------1-L----|
------0-2-3-----------3-2-------------------2-3--------|
----2---------------------4-2-0-----------2------------|
--------------------------------3-2-0-2-3--------------|
-------------------------------------------------------|
-------------------------------------------------------|


  |-3-| |-3-| |-3-| |-3-| |-3-| |-3-| |-3-| |-3-|  
  S S S S S S S S S S S S S S S S S S S S S S S S  
------1-----3-----5-----6-----0---6---0-----------|
----3-----3-----3---------------8---8---2---------|
----------------------7-----6-------------2-0-----|
--0-----2-----3-----5-----7-------------------3-2-|
--------------------------------------------------|
--------------------------------------------------|


  |-3-| |-3-| |-3-| |-3-| |-3-| |-3-| |-3-| |-3-|  
  S S S S S S S S S S S S S S S S S S S S S S S S  
----1-----3-----5-----6-------------------------0-|
------3-----3-----3-------------------------------|
------------------------7-6---0-----------0---6---|
--0-----2-----3-----5-------8---------------8-----|
--------------------------------7---0---7---------|
----------------------------------9---9-----------|


  |-3-| |-3-| |-3-| |-3-| |-3-| |-3-| |-3-| |-3-|  
  S S S S S S S S S S S S S S S S S S S S S S S S  
----0---6---------0-5-----------3-----------1-----|
------6---------3-----------2-3-----------2-------|
--7-------7---5-------5---3-------3---2-3-----2---|
------------5-----------3-----------2-----------0-|
--------------------------------------------------|
--------------------------------------------------|


  |-3-| |-3-| |-3-| |-3-| |-3-| |-3-| |-3-| |-3-|  
  S S S S S S S S S S S S S S S S S S S S S S S S  
--------------------------------------------------|
------4-----3-----2-----3-------------------------|
----3-----2-----0-----2-------3-----2-----3-------|
--5-----3-----2-----3-------3-----2-----3-------7-|
--------------------------5-----4-----5-------7---|
--------------------------------------------9-----|


  |-3-| |-3-| |-3-| |-3-| |-3-| |-3-| |-3-| |-3-|  
  S S S S S S S S S S S S S S S S S S S S S S S S  
------6-4-----------4-7-------5---------------5---|
----6-----6---0---6---------4---6-4-------4-7-----|
--7---------7---7-------7-5---------5---5-------5-|
--------------------------------------7-----------|
--------------------------------------------------|
--------------------------------------------------|


  |-3-|  |-3-| |-3-| |-3-| |-3-| |-3-| |-3-| |-3-|  
  S S S  S S S S S S S S S S S S S S S S S S S S S  
-----------0-------7---0-------0-------------0-----|
------8--------------6-----------6-----------------|
----7---10---7---7-------7---6-----7-----6-7---7---|
--8------------6-----------7---------6-7---------6-|
---------------------------------------------------|
---------------------------------------------------|


  |-3-| |-3-| |-3-| |-3-| |-3-| |-3-| |-3-| |-3-|  
  S S S S S S S S S S S S S S S S S S S S S S S S  
------0---------------2-------0---------------0---|
--------4---------1-4-----------2-----------2-----|
----5-----5-----2-------2-0-3-----3-0---0-3-----0-|
--7---------7-4-----------------------2-----------|
--------------------------------------------------|
--------------------------------------------------|


  |-3-| |-3-| |-3-| |-3-| |-3-| |-3-| |-3-| |-3-|  
  S S S S S S S S S S S S S S S S S S S S S S S S  
----------------------------------0---------------|
------3-0---------1-------------2---2-------------|
----2-----1-----0---2-------0-3-------3-0---------|
--4---------3-2-------4-1-0---------------3-1-0---|
------------------------------------------------4-|
--------------------------------------------------|


  |-3-| |-3-| |-3-| |-3-| |-3-| |-3-| |-3-| |-3-|  
  S S S S S S S S S S S S S S S S S S S S S S S S  
--------------------------------------------------|
--------------------------------------------------|
------3-----------2-----------0-------------------|
----3---6-3-----2---4-1-----0---2---------3-0-----|
--5---------5-4---------3-2-------4-----5-----2---|
------------------------------------6-5---------4-|


  |-3-| |-3-| |-3-| |-3-| |-3-| |-3-| |-3-| |--3-|  
  S S S S S S S S S S S S S S S S S S S S S S  S S  
------------------------------0-----3-----6------9-|
------------------1---1-4---1-----5-----8-----11---|
------------0---0---0-----3-----5-----9-----9------|
------1---1---1------------------------------------|
----3---3------------------------------------------|
--3------------------------------------------------|


  |-3-| |-3-| |-3-| |-3-| |-3-| |-3-| |-3-| |-3-|  
  S S S S S S S S S S S S S S S S S S S S S S S S  
--------3-1-0-----0-6-5-3-------3-1-0-----0-6-5-3-|
------2---------2-------------2---------2---------|
----3---------0-------------3---------0-----------|
--------------------------------------------------|
--0-----------------------0-----------------------|
--------------------------------------------------|


  |-3-| |-3-| |-3-| |-3-| |-3-| |-3-| |-3-| |-3-|  
  S S S S S S S S S S S S S S S S S S S S S S S S  
----------0-1-------1-3-5-1-0---------------------|
------2-3-------2-3-----------3-2-----------------|
----2---------2-------------------3-2-0-----------|
--3-------------------------------------3-2-0-----|
----------------------------------------------4-1-|
--------------------------------------------------|


  |-3-| |-3-| |-3-| |-3-| |-3-| |-3-| |-3-| |-3-|  
  S S S S S S S S S S S S S S S S S S S S S S S S  
--------0-----------------------0-----------------|
------2---3-2-----------------2---3-2-------------|
----0-------------0-3-2-0---0-------------0-3-2-0-|
----------------2-----------------------2---------|
--0-----------4-----------0-----------4-----------|
--------------------------------------------------|


  |-3-| |-3-| |-3-| |-3-| |-3-| |-3-| |-3-| |-3-|  
  S S S S S S S S S S S S S S S S S S S S S S S S  
----------------------------------0-------------5-|
----------------------2-3-----2-3---6-------6-9---|
----------0-2-----1-2-------2-----------6-7-------|
------0-3-----0-3---------3-----------7-----------|
--0-4---------------------------------------------|
--------------------------------------------------|


  T T T T T T T T T T T T T T T T T T T T T T T T T T T T T T T T  
--7-4-5-7-------------------------------------------0-------------|
----------3-5-6-0-1-3-------------------------2-3-2---3-2---------|
----------------------1-2-4-------------1-2-4-------------4-2-0---|
----------------------------0-2-3-------------------------------3-|
----------------------------------2-3-5---------------------------|
------------------------------------------------------------------|


  T T T T T T T T T T T T T T T T T T T T T T T T T T T T T T T T  
------------1-0-----------------------------------1-0-------4-1-0-|
----------------3-----------------------3-2-----------3-2-0-------|
------------------3-2-0-----------0---------4-2-0-----------------|
--2-0---2---------------3-2-0---2---3-2---------------------------|
------4---0-------------------4-----------------------------------|
------------------------------------------------------------------|


  T T T T T T T T T T T T T T T T T T T T T T S Q       W                   
------0-5-----0--------------------------------------|--------------------||
--3-2-----5-----2---2--------------------------------|--------------------||
------------6-----2---2---2--------------------------|-------------------*||
------------------------2---2---2--------------------|-------------------*||
------------------------------4---4-0-4-0---0-L-L----|--L-----------------||
------------------------------------------0----------|--------------------||




Duration Legend
---------------
W - whole
H - half
Q - quarter
E - 8th
S - 16th
T - 32nd
X - 64th
. - note dotted
|-n-|  - n-tuplets


Tablature Legend
----------------
L - tied note
Login or Register to remove this ad.

11 comments on Chromatic Fantasia

Awesome! To the practice

Awesome! To the practice chamber I go.

Good luck! I didn't notate

Good luck! I didn't notate the hammer-ons and all that but I think the fingering should point to where they should be, though the fingering isn't set in stone.

When I saw "Composed by: J.S.

When I saw "Composed by: J.S. Bach (H. Funauchi)" I thought it was a joke.
But then I looked for on YouTube some chromatic fantasia composed by Bach for guitar... and I found this : http://www.youtube.com/watch?v=_ARgvv25he0
It seems that this song is exactly the 1st minute of the "Chromatc Fantasia BWV903" composed by Bach :O
Please correct me if I'm wrong...

It is indeed. The arrangement

It is indeed. The arrangement on the ost is by Funauchi, but is essentially just a synthesized version of the first minute of the piece by Bach. That's why I put it in parentheses as he didn't actually compose it but I wanted to credit the composer on the soundtrack and the reference I used, which was Funauchi's synth version.

Thanks for the reply, Kabuki

Thanks for the reply, Kabuki ! And congratulations for that awesome tab ;)

Oh! this is pretty neat.

Oh! this is pretty neat.

Crap, this is hard. I'm

5

Crap, this is hard. I'm coming up with my own fingerings for electric guitar :-D

@_@;

:-D

Ha! I ruined your tab.

Ha! I ruined your tab.

     T T T T T T T T T T T T T T T T T T T T T T T T Q     
E||-------------------------------------------------------|
B||----------------2-3-----------------------------5-L----|
G||------------2-4-----5-3-2-------------------2-3--------|
D||------2-3-5---------------5-3-2-------2-3-5------------|
A||----5---------------------------5-4-5------------------|
E||-------------------------------------------------------|


  T T T T T T T T T T T T T T T T T T T T T T T T Q     
----------------3--------------------------------------|
----------3-5-6---6-5-3-----------------------3-6-L----|
----2-4-6---------------6-4-2-------------2-6----------|
------------------------------5-3-2---2-3--------------|
------------------------------------5------------------|
-------------------------------------------------------|


  |-3-| |-3-| |-3-| |-3-| |-3-| |-3-| |-3-| |-3-|  
  S S S S S S S S S S S S S S S S S S S S S S S S  
------------------5-----6---------6---------------|
------6-----8-----------------5-8---8-5-----------|
----7-----7-----7-----7-----6-----------6---------|
--------------------5-----7---------------7-5-----|
--5-----7-----8-------------------------------8-7-|
--------------------------------------------------|


  |-3-| |-3-| |-3-| |-3-| |-3-| |-3-| |-3-| |-3-|  
  S S S S S S S S S S S S S S S S S S S S S S S S  
----------------5-----6---------------------------|
----6-----8-------------------------------------5-|
------7-----7-----7-----7-6-------------------6---|
--------------------5-------8-5-----------5-8-----|
--5-----7-----8-----------------7-4---4-7---------|
------------------------------------5-------------|


  |-3-| |-3-| |-3-| |-3-| |-3-| |-3-| |-3-| |-3-|  
  S S S S S S S S S S S S S S S S S S S S S S S S  
--------6-----------5-----------------------------|
----5-6-----------5-------------8-----------6-----|
--7-------7-0-5-7-----5-----6-7-----------6-------|
--------------------------8-------8---7-8-----7-0-|
------------------------8-----------7-------------|
--------------------------------------------------|


  |-3-| |-3-| |-3-| |-3-| |-3-| |-3-| |-3-| |-3-|  
  S S S S S S S S S S S S S S S S S S S S S S S S  
--------------------------------------------------|
------4-----3-----2-----3-------------------------|
----3-----2-----------2-------3-----2-----3-------|
--5-----3-----2-5---3-------3-----2-----3-------7-|
--------------------------5-----4-----5-----4-7---|
--------------------------------------------------|


  |-3-| |-3-| |-3-| |-3-| |-3-| |-3-| |-3-| |-3-|  
  S S S S S S S S S S S S S S S S S S S S S S S S  
------6-4-----------4-7-------5---------------5---|
----6-----6-------6---------4---6-4-------4-7-----|
--7---------7-4-7-------7-5---------5---5-------5-|
--------------------------------------7-----------|
--------------------------------------------------|
--------------------------------------------------|


  |-3-|  |-3-| |-3-| |-3-| |-3-| |-3-| |-3-| |-3-|  
  S S S  S S S S S S S S S S S S S S S S S S S S S  
-------------------7-------------------------------|
------8-6--5---------6-5-------5-6-----------5-----|
----7--------7---7-------7---6-----7-----6-7---7---|
--8------------6-----------7---------6-7---------6-|
---------------------------------------------------|
---------------------------------------------------|


  |-3-| |-3-| |-3-| |-3-| |-3-| |-3-| |-3-| |-3-|  
  S S S S S S S S S S S S S S S S S S S S S S S S  
--------------------------------------------------|
------5---------------7-------5-------------------|
----5---8-5-------5-8-----------6-----------6-9---|
--7---------7-4-7-------7-5-8-----8-5---5-8-----5-|
--------------------------------------7-----------|
--------------------------------------------------|


  |-3-| |-3-| |-3-| |-3-| |-3-| |-3-| |-3-| |-3-|  
  S S S S S S S S S S S S S S S S S S S S S S S S  
--------------------------------------------------|
--------------------------------------------------|
------7-----------5-------------6-9-6-------------|
----7---9-6-----5---7-4-----5-8-------8-5---------|
--9---------8-7---------6-5---------------8-6-5---|
------------------------------------------------9-|


  |-3-| |-3-| |-3-| |-3-| |-3-| |-3-| |-3-| |-3-|  
  S S S S S S S S S S S S S S S S S S S S S S S S  
--------------------------------------------------|
--------------------------------------------------|
--------------------------------------------------|
------8-6---------7-4---------5-------------------|
--5-8-----8-5-4-7-----6-----5---7-4-----5-8-5-----|
------------------------8-7---------6-5-------7-4-|


  |-3-| |-3-| |-3-| |-3-| |-3-| |-3-| |-3-| |--3-|  
  S S S S S S S S S S S S S S S S S S S S S S  S S  
------------------------------------------6---6--9-|
------------------------------5---5-8-5-8---5------|
------------------5---5-8---5---5------------------|
------------5---5---5-----8------------------------|
----3-6-3-6---6------------------------------------|
--3------------------------------------------------|


  |-3-| |-3-| |-3-| |-3-| |-3-| |-3-| |-3-| |-3-|  
  S S S S S S S S S S S S S S S S S S S S S S S S  
--------------------6-5---------------------6-5---|
--------8-6-5-----5-----8-------8-6-5-----5-----8-|
------6---------6-------------6---------6---------|
----8---------5-------------8---------5-----------|
--------------------------------------------------|
--5-----------------------5-----------------------|


  |-3-| |-3-| |-3-| |-3-| |-3-| |-3-| |-3-| |-3-|  
  S S S S S S S S S S S S S S S S S S S S S S S S  
------------------------5-------------------------|
----------5-6-------6-8---6-5---------------------|
------6-7-------6-7-----------7-6-----------------|
----7---------7-------------------8-7-5-----------|
--8-------------------------------------8-7-5-4---|
------------------------------------------------6-|


  |-3-| |-3-| |-3-| |-3-| |-3-| |-3-| |-3-| |-3-|  
  S S S S S S S S S S S S S S S S S S S S S S S S  
--------------------------------------------------|
--------5-----------------------5-----------------|
------6---7-6-----------------6---7-6-------------|
----5-------------5-8-7-5---5-------------5-8-7-5-|
--------------4-7---------------------4-7---------|
--5-----------------------5-----------------------|


  |-3-| |-3-| |-3-| |-3-| |-3-| |-3-| |-3-| |-3-|  
  S S S S S S S S S S S S S S S S S S S S S S S S  
----------------------------------------------4-5-|
----------------------------------5-6-------6-----|
----------------------6-7-----6-7-------6-7-------|
----------5-7-----6-7-------7---------7-----------|
----4-5-8-----5-8---------8-----------------------|
--5-----------------------------------------------|


  T T T T T T T T T T T T T T T T T T T T T T T T T T T T T T T T  
--7-4-5-7---------------------------------------------------------|
----------3-5-6-------------------------------2-3-2-5-3-2---------|
----------------4-5-7-------------------1-2-4-------------4-2-----|
----------------------6-7-9-----------------------------------5-3-|
----------------------------5-7-8-2-3-5---------------------------|
------------------------------------------------------------------|


  T T T T T T T T T T T T T T T T T T T T T T T T T T T T T T T T  
------------1-------------------------------------1---------4-1---|
--------------5-3-----------------------3-2---------5-3-2-------5-|
------------------3-2-----------------------4-2-----------4-------|
--2-----2-------------5-3-2-----2-5-3-2---------5-----------------|
----5-4---------------------5-4-----------------------------------|
----------5-------------------------------------------------------|


  T T T T T T T T T T T T T T T T T T T T T T S Q       W                   
--------5--------------------------------------------|--------------------||
--3-2-5---5-2-5-2---2--------------------------------|--------------------||
------------------2---2---2--------------------------|-------------------*||
------------------------2---2---2--------------------|-------------------*||
------------------------------4---4---4--------------|--------------------||
------------------------------------5---5-0-5-L-L----|--L-----------------||

>:(

>:(

NOOOOOOOOOOOOOOOOOOOOOOOOOOOO

NOOOOOOOOOOOOOOOOOOOOOOOOOOOOOOOOOOOOOOOOO

Not that it matters terribly

5

Not that it matters terribly but Castlevania 2 (simon's Quest, NES) isn't the same as Castlevania Adventure 2(belmonts quest GB).

Also the adventure games were brutally hard. I don't think I ever made it past the first level.

Great work kabuki.