Ads

Kimi ni Sasageru Lullaby (Captain Tsubasa) Bass/Guitar Tab

Submitted: May 09, 2012 by daniel guerra c...

4.5
Average: 4.5 (2 votes)
Download | Listen
Game: Captain Tsubasa
Composer(s): Hiromoto Tobisawa
Style: 2 or more instruments, Transcription

This song is also called Hyuga's Theme

Click here for a video example.

AutoScroll: Slow | Medium | Fast
Kimi ni Sasageru´╗┐ Lullaby (Hyuga's Theme) - Captain Tsubasa
Guitar Cover

Song : Kimi ni Sasageru´╗┐ Lullaby (Guitar Version)
Anime: Captain Tsubasa
Cover: Daniel Guerra Caballero (original)
Video: http://youtu.be/WtUcLm91sKU
Date : May, 2012
Mail : [email protected]
web  : http://danielguerracaballero.blogspot.com

Guitar
-------

1---------------------------------------------------------------
2-/15---------/13---------/10--14-15----15-17-18-17-15---14--17-
3-----14-15-------12--14----------------------------------------
4---------------------------------------------------------------
5---------------------------------------------------------------
6---------------------------------------------------------------

1---------------------------------------------------------------------
2-/15-------------/13-----------/10--14-15----15-17-18-17-15---14--17-
3-----14--17-15-------12--15-14---------------------------------------
4---------------------------------------------------------------------
5---------------------------------------------------------------------
6---------------------------------------------------------------------

1------------------------------
2-18-17-15--13--13-15----------
3------------------------------
4------------------------------
5------------------------------
6------------------------------

Bass
-----

Intro
1-/14-12--/10-9------------------
2--------------------------------
3--------------------------------
4--------------------------------

1st riff (main) Repeat x2
1----------------------------------------------
2----------------/10-8----------12-10-7--------
3-5-----5---------------3-----3----------------
4---5-5---5-8-6-----------3-3-----------10-8-5-

1------------------------------------------------------
2--------------------------------------14-----14-------
3-12-10-8-8-10----10-12---12-12--10-12----12-----12-12-
4------------------------------------------------------

2nd riff
1-------------------12----------------------------------
2----------------10----12-10-10-10-10-------------------
3-5-----5------------------------------3---3-----7------
4---5-5---5-8-6--------------------------3---3-5---5----

1------------------------------------------------------
2--------------------------------------14-----14-------
3-12-10-8-8-10----10-12---12-12--10-12----12-----12-12-
4------------------------------------------------------

End
1---------------------------
2-8--8-8-8-10--10-10-10-12--
3---------------------------
4---------------------------
Login or Register to remove this ad.

1 comment on Kimi ni Sasageru Lullaby

Tigeeeeeeeeeeeeeeeeeeeeeeeeee

Tigeeeeeeeeeeeeeeeeeeeeeeeeeeeer Shot ! ! !