My Heaven (Canaan) Guitar Tab

Submitted: Oct 29, 2013 by corntastic

2.333335
Average: 2.3 (3 votes)
Download | Listen
Game: Canaan
Composer(s): Hikaru Nanase
Style: Transcription

AutoScroll: Slow | Medium | Fast
My Heaven
Canaan
myu, Annabel
corntastic
28 10 2013


Intro only play once:
e-------------------------------------------------------------------------
B--10s8-------------------------------------------------------------------
G-------------------------------------------------------------------------
D-------------------------------------------------------------------------
A-------------------------------------------------------------------------
E-------------------------------------------------------------------------


e-------------------------------------------------------------------------
B-------------------------------------------------------------------------
G------9--10--10----------9--7--------------------------------------------
D--10-------------10--10--------------7----10----9----7-------------------
A-------------------------------------------------------------------------
E-------------------------------------------------------------------------

e-------------------------------------------------------------------------
B-------------------------------------------------------------------------
G------9--10--10----------9--7-------------------7----9-------------------
D--10-------------10--10--------------7----10-----------------------------
A-------------------------------------------------------------------------
E-------------------------------------------------------------------------

e-------------------------------------------------------------------------
B-------------------------------------------------------------------------
G------9--10--10----------9--7--------------------------------------------
D--10-------------10--10--------------7----10----9----7-------------------
A-------------------------------------------------------------------------
E-------------------------------------------------------------------------

e-------------------------------------------------------------------------
B------------------------------------------------8------------------------
G------9--10--10----------9--7------------------------9-------------------
D--10-------------10--10--------------7----10-----------------------------
A-------------------------------------------------------------------------
E-------------------------------------------------------------------------

______________________________________________________________________________________


e-------------------------------------------------------------------------
B---------8---------------------------------------------------------------
G--9--10-----9----7--7----9--9----10--10----------------------------------
D-------------------------------------------------------------------------
A-------------------------------------------------------------------------
E-------------------------------------------------------------------------

e-------------------------------------------------------------------------
B-----8----10--10--------10--8--------------------------------------------
G--7-----------------10---------7-----------------------------------------
D-------------------------------------------------------------------------
A-------------------------------------------------------------------------
E-------------------------------------------------------------------------

______________________________________________________________________________________


e-------------------8-----------------------------------------------------
B--10----10--10--8-----11--10----10----10--10--8--11--10------------------
G---------------------------------------------------------7---------------
D-------------------------------------------------------------------------
A-------------------------------------------------------------------------
E-------------------------------------------------------------------------

e-------------------8-----------------------------------------------------
B--10----10--10--8-----11--10----10----------8--8---------8--8------------
G--------------------------------------10------------7--------------------
D-------------------------------------------------------------------------
A-------------------------------------------------------------------------
E-------------------------------------------------------------------------

e-------------------8-----------------------------------------------------
B--10----10--10--8-----11--10----10----10--10--8-----8--8-----------------
G-------------------------------------------------7-----------------------
D-------------------------------------------------------------------------
A-------------------------------------------------------------------------
E-------------------------------------------------------------------------

e--8-----------------8----------------------------------------------------
B-----10Lg8--8-----------10Lg8--8-----------------------------------------
G-------------------------------------------------------------------------
D-------------------------------------------------------------------------
A-------------------------------------------------------------------------
E-------------------------------------------------------------------------

e-------------------------------------------------------------------------
B-------------------------------------------------------------------------
G--7----------10----------------------------------------------------------
D-------10----------------------------------------------------------------
A-------------------------------------------------------------------------
E-------------------------------------------------------------------------
Repeat everything and skip this specific bar ^ the second time
______________________________________________________________________________________


e-------------------------------------------------------------------------
B--8--8--8--8--10--11--8--------10----11--10----8-------------------------
G---------------------------10---------------------10--7------10--7-------
D---------------------------------------------------------10--------------
A-------------------------------------------------------------------------
E-------------------------------------------------------------------------

e-------------------------------------------------------------------------
B--8--8--8--8--10--11--8b10----8-----------8------------------------------
G---------------------------------7----10---------------------------------
D-------------------------------------------------------------------------
A-------------------------------------------------------------------------
E-------------------------------------------------------------------------


e-------------------8-----------------------------------------------------
B--10----10--10--8-----11--10----10----10--10--8--11--10------------------
G---------------------------------------------------------7---------------
D-------------------------------------------------------------------------
A-------------------------------------------------------------------------
E-------------------------------------------------------------------------

e-------------------8-----------------------------------------------------
B--10----10--10--8-----11--10----10----11--10--8--------------------------
G-------------------------------------------------------------------------
D-------------------------------------------------------------------------
A-------------------------------------------------------------------------
E-------------------------------------------------------------------------


______________________________________________________________________________________


e-------------------8-----------------------------------------------------
B--10----10--10--8-----11--10----10----10--10--8--11--10------------------
G---------------------------------------------------------7---------------
D-------------------------------------------------------------------------
A-------------------------------------------------------------------------
E-------------------------------------------------------------------------

e-------------------8-----------------------------------------------------
B--10----10--10--8-----11--10----10----------8--8---------8--8------------
G--------------------------------------10------------7--------------------
D-------------------------------------------------------------------------
A-------------------------------------------------------------------------
E-------------------------------------------------------------------------

e-------------------8-----------------------------------------------------
B--10----10--10--8-----11--10----10----10--10--8-----8--8-----------------
G-------------------------------------------------7-----------------------
D-------------------------------------------------------------------------
A-------------------------------------------------------------------------
E-------------------------------------------------------------------------

e--8-----------------8----------------------------------------------------
B-----10Lg8--8-----------10Lg8--8-----------------------------------------
G-------------------------------------------------------------------------
D-------------------------------------------------------------------------
A-------------------------------------------------------------------------
E-------------------------------------------------------------------------

e-------------------------------------------------------------------------
B-------------------------------------------------------------------------
G--7----------10----------------------------------------------------------
D-------10----------------------------------------------------------------
A-------------------------------------------------------------------------
E-------------------------------------------------------------------------
Login or Register to remove this ad.