Login or Register to remove this ad.

One More Chance, One More Time (Byousoku 5 Centimeter) Guitar Tab

Submitted: Aug 18, 2009 by surreal (Last updated: Feb 06, 2010)

4.90476
Average: 4.9 (21 votes)
Download | Listen
Game: Byousoku 5 Centimeter
Composer(s): Tenmon, Masayoshi Yamazaki
Style: Arrangement, Fingerstyle

AutoScroll: Slow | Medium | Fast
Gtr I (E A D G B E)

  Q=60

 4/4
  Gtr I
  E E E E Q  E E    E E E E Q  Q    E E E E Q  E E
|------------5-7-|-^9-------7--5--|------------5-7-|
|-5-------6------|-^7---7---6-----|-5-------6------|
|-6-------6------|-^7-7---7-------|-6---6---6------|
|-7---7---7------|-^0-------------|-7-----7--------|
|---7---7--------|----------------|---7------------|
|-5--------------|----------------|-5--------------|


   E E  E E  Q    Q     E S S S S S S  E  E S S E   E S S S S S  S +E  E E E
|-^9--------^7--<12>--|---------------------------|-------0-------------------|
|-^7---10---^6--------|---------0---2-(2)-2-------|---------3---^3-(3)-3-2----|
|-^7-7----7-^7--------|-------2-------------2-----|-----------6------------2--|
|-^0--------^0--------|---2-2-----2----3------2-2-|-0---4-------^3-(3)---0----|
|---------------------|-0--------------0----------|---0---------^0-(0)--------|
|---------------------|---------------------------|---------------------------|


  E S S S S S S  S  S E S S E   E S S S S S  S +E  E E E   Q  E E +Q.   S S
|-----------------------------|-------0------------------|----0--------------|
|---------0---2-(2)-2-2-------|---------3-2-^3-(3)-3-2---|-0----2-(2)---0-2--|
|-------2---------------2-----|----------------------2-2-|------2-(2)--------|
|---2-2-----2----3--------2-2-|-0---2-------^3-(3)-------|------4-(4)--------|
|-0--------------0------------|---0---------^0-(0)-------|-4-----------------|
|-----------------------------|--------------------------|------2-(2)--------|


  E S S +S  E  S   S S  S  S S E.
|---------------------------------|
|-3-2----------0--^0----1--0------|
|-----4-(4)-------^0-----------2--|
|---4-------0-(0)-^3--------------|
|-2---------------^3-3-(3)---3----|
|---------------------------------|


  S S E E E +Q.   S S   E S S  E. S  E. S  S  E.
|-------0-------------|---------------------------|
|-----0---2-(2)---0-2-|-3-2-------0-^1--0-(0)-----|
|---1-----2-(2)-------|-----4-(4)---^2--------2---|
|---------4-(4)-------|---4----0----^3------------|
|-4-------------------|-2-----------^3-----3------|
|---------2-(2)-------|---------------------------|


  E S S S S S  S +E  E S S E
|----------------------------|
|---------0---^2-(2)-2-------|
|-------2-----^2-(2)---2-----|
|---2-2-------^3-(3)-----2-2-|
|-0-----------^0-(0)---0-----|
|-----------0----------------|


  E S S S S S  S +E  E E E   E S S S E  S +E  E S S E
|-------0------------------|--------------------------|
|---------3---^3-(3)-3-2---|---------0-^2-(2)-2-------|
|-----------6------------2-|-------2------------2-----|
|-0---4-------^3-(3)-------|---2-2-----^3-(3)-----2-2-|
|---0---------^0-----------|-0---------^0-(0)-0-------|
|--------------------------|--------------------------|


  E S S S S S  S +E  E E E   Q  E E +Q   E S S   E S S  E. S  S S  S  S S E.
|-------0------------------|----0--------------|------------------------------|
|---------3-2-^3-(3)-3-2---|-0----2-(2)----0-2-|-3-2-0-(0)-0-^0----1--0-------|
|------------------------2-|------2-(2)--------|--------2----^0-----------2---|
|-0---2-0-----^3-(3)---0---|-2----4-(4)--------|---4---------^3---------------|
|---0---------^5-(5)-------|-4-----------4-----|-2-----------^3-3-(3)---3-----|
|--------------------------|------2-(2)--------|------------------------------|


  S S E E E +Q.   S S   E S S  E. S  S S S S S S S S
|-------0-------------|------------------------------|
|-----0---2-(2)---0-2-|-3-2-0-(0)-0-^0---1-0---------|
|---1-1-1-2-(2)-------|--------2---------2-----2-----|
|-----2-2-4-(4)-------|---4---------^3-----3-3---2-2-|
|-4---2---------------|-2---------3----3-------------|
|-----0---2-(2)-------|-------------^1-------------0-|


  S S  S S S S  S   S +E  E S S E
|-----^0-0------------------------|
|----------3-2-(2)-^2-(2)-2-------|
|-----^2-----------^1-(1)---2-----|
|---2-^2-----------^2-(2)-----2-2-|
|-0----------------^0-(0)---------|
|---------------0-----------------|


  E S S S S  S   S +S  S S S S S S S   S S S S S S S S S S S S S S S S
|---0-0------------------------------|---------0---------------0-------|
|---0-0-3-2-(2)-^2-(2)-2-------0-2-0-|---3-3-3---3-2-3---3-3-3---3-2-3-|
|---0-0---------^3-(3)-----3-3-------|---------4---------------3-------|
|---------------^4-(4)---------------|-----4---------------4-----------|
|------------4---------------4-------|-2---------------2---------------|
|-3-----3----------------2-------2---|---------------------------------|


  S S S S S S S S  S S S S S S S S   S S  S S S S  S   S  S  S  E  S S E
|-----------------^2-0-0---0---2-0-|-----^0-0----------------------------|
|---0-0-0-0-0-2-3-^0-----2---0-----|----------3-2-(2)-^2-(2)----2--------|
|---------2-----4------------------|-----^2---2-------^0-(0)-2-(2)-2-----|
|-----4---------4-^2-------2-------|---2-^2--------2--^2-(2)---------2-2-|
|-2--------------------------------|-0--------------------0--------0-----|
|----------------------------------|-------------------------------------|


  E S S S S  S   S  S  S S S S S S S   S S S S S S S S S S S S S S S S
|---0-0------------------------------|---------0---------------0-------|
|---0-0-3-2-(2)-^2-(2)---------0-2-0-|---3-3-3---3-2-3---3-3-3---3---3-|
|---0-0---------^3-(3)-3---3-3-------|---------4---------3---------6---|
|---------------^4-(4)---4-----------|-----4-------------4-------------|
|------------4---------------2-------|-2---------------2---------------|
|-3-----3-----------2----------------|---------------2-2-------4-------|


  S S S S S S S S  S S S S S S S S   E E E E  E E E E
|-----------------^2-0-0---0---2-0-|---------^7-3-----|
|---0-0-0-0-0-2-3-^0-----2---0-----|-------0-^5---5---|
|---------2-----4------------------|-----0---^4-----4-|
|-----4---------4-^2-------2-------|---2--------------|
|-2--------------------------------|------------------|
|----------------------------------|-3----------------|


  S S S S S S S S E E Q    E E E E E E Q    E S S S S S  S +E  E S S E
|-------0---0------------|----------------|----------------------------|
|-2-----------2----------|---------0------|---------0---^2-(2)-2-------|
|-----4---2-----2--------|----------------|-------2-----^2-(2)---2-----|
|---2-------------2------|-2-------2---2--|---2-2-------^3-(3)-----2-2-|
|-0-----------------0-4--|-2-----2---2----|-0-----------^0-(0)---0-----|
|------------------------|-3-0-4----------|-----------0----------------|


  E S S  S S S  S +S  S  E  S S S S   S S  S  S S S S  S +S  S  E  S S E
|-------^0--------------------------|------------------------------------|
|----------3-2-^3-(3)----3--2-------|-------------0---^2-(2)----2--------|
|-------^2---2----------------2-----|------2----2-----^2-(2)-------2-----|
|-0---2-^4-----^3-(3)-3-(3)-----2---|---2-(2)-2-----2-^3-(3)-3-(3)---2-2-|
|---0----------^5-(5)-------2-------|-0---------0-----^0-(0)-------------|
|---------------------------------0-|------------------------------------|


  E S S S S S  S +S  S  E  E E   Q  E E +Q   E S S
|-------0----------------------|----0--------------|
|---------3-2-^3-(3)----3--2---|-0----2-(2)----0-2-|
|-------------^2-(2)---------2-|----1-2-(2)--------|
|-0---2-4-----^3-(3)-3-(3)-0---|-2----4-(4)--------|
|---0---------^0-(0)-----------|-4-----------4-----|
|------------------------------|------2-(2)--------|


  S S S S  T  T S S S  S S  S  S S S S S   S S  S S  E  E +E  E E S S
|----------------------------------------|-----------0----------------|
|-3---2-0-(0)-------0-^1----0--0---------|-----^0-------2-(2)-----0-2-|
|-----------------2---^0-----------2---1-|---1-^1-------2-(2)---------|
|---4---0-----0-------^3----3--3-3---2---|-----^2-2-----4-(4)---2-----|
|-2--------0-------------3-(3)-----------|-4------------------0-------|
|---------------2-----^0-----------------|--------0-(0)-2-(2)---------|


  E S S  E. S  E S S S S S S   S S  S S S S +S   S +S  S  E  S S S S
|----------------------------|-----^0-0------------------------------|
|-3-2-0-(0)-0-^0-1-0---------|----------3-2-(2)-^2-(2)----2----------|
|--------2-------------2-----|---1-^2---2-------^1-(1)-------2-------|
|---4---------^3-----3-----2-|-----^2-----2-(2)-^2-(2)-2-(2)---2-2---|
|-2---------3----3-------3---|-4----------------^0-(0)---------------|
|-------------^1-------------|-------------------------------------0-|


  S S E E S S +S  S S S S S S S   S S S S S S S S +S  S S S S S S S
|-----0-------------------------|---------0-----------------0-------|
|-----0-3-2-2-(2)-2-----2-0-2-0-|---3-3-3---3-2-3-----3-3-3---3-2-3-|
|-----0-0---3-(3)-----2-2-------|-----4---------3-(3)-3-3-3-3-----2-|
|---2-------4-(4)---4-----------|---------4---4---------4-------4---|
|---------4---------------------|-2---------------------------------|
|-3---------2-(2)---------------|-----------------------------------|


  S S S S S S S S  S S S S S S  S  S   S S  S S S S  S   S  S  S  E  S S S S
|-----------------^2-0-0---0----2--0-|-----^0-0------------------------------|
|---0-0-0-0-0-2-3-^0-----2-0-0-------|----------3----2--^2-(2)----2----------|
|---------2------------1-----1-(1)---|---2-^2---2-------^1-(1)-------2-------|
|-----4-----------^2-----2-----------|-----^2-----2-(2)-^2-(2)-2-(2)---2-2---|
|-2-----------2------2---------------|-0--------------------0----------------|
|----------------------------------0-|-------------------------------------0-|


  S S S S E S S +S  S S S S S S S   S S S S S S S S S  S S S S S S S
|-----0-0-------------------------|---------0----------------0-------|
|-----0-0-3-2-2-(2)-------2-0-2-0-|---3-3-3---3-2-3---^3-3-3---3-2-3-|
|-----0-0-0---3-(3)-3---3-3-------|---------4---------^3-3-3-3-------|
|---2---------4-(4)---4-------4---|-----4-------------^4-4-----------|
|-----------4---------------------|-2---------------2----------------|
|-3-----------2-(2)---------------|----------------------------------|


  S S S S S S S S  S S S S S S S S   S S S S S S S S S S S S S S S T T
|-----------------^2-0-0---0---2-0-|-----------------------------0-----|
|---0-0-0-0-0-2-3-^0-----2---0-----|---------------------0---3---------|
|---------2----------------1-------|-----0---0-----2-0-0-------------2-|
|-----4-----------^2-------------2-|---2---2-----0-------------2---2---|
|-2--------------------2-----------|-----------2-----------------------|
|----------------------------------|-3---------------------3-----------|


  S S S S S S  S    S   S   S  S S S S S S   E E E E E S S S S T T S
|-----------0-----<12>---------0-----------|---------3---------------|
|-2-------2------------[2]-----------------|-0-----------------------|
|-2---2-------[2]----------[2]-------------|-0-----0-0-------0-0-----|
|-2-2---2--------------------------2---0-2-|-2---2-2-0-0---2-------3-|
|-0------------------------------0-2-4-----|-2-2-2---------2-----3---|
|-0----------------------------------------|-3---3-------3-3---------|


  E S S E S S E S S  S  S S S    E S S  S  S E  Q  E S S
|---------------0-0-(0)-------|----0---------------------|
|-1-----1-1---0------0--3-2-3-|-^3---1-(1)-0-1-----------|
|-----2-2---0-----------------|-^2-------------^2--2---2-|
|---------0-----0-------------|-^2-2-------2---^2--2-----|
|---3-------------------------|-^0-------------^0----3---|
|-1-----------3---------------|---------3------^3--------|


  S S  S  S  S  S S S  S  S E E S S   E  S  S S S S S  E E Q
|------5--5-(5)-3-0-0-(0)-----------|-----------------^0---0--|
|---------------------------3-1-3---|-3-(3)-------3-0-^0-0----|
|-2----2--2--2--------------4-------|-----------2-----^1------|
|-----------------0-------0---------|-------2-2-------^2------|
|---3-(3)-------------------------2-|----2------------^2------|
|-1--------------------3------------|-0---------------^0------|


  E S S E S S +S  S  E  S S E   E S S S S +S  S +S  S S S S S S S
|---0-0-----------------------|---0-0-----------------------------|
|-2-----3-2-2-(2)----2--------|---0-0-3-2-(2)-2-(2)---------0-2-0-|
|-2---------1-(1)-------2-----|---0-0---------3-(3)-3---3-3-------|
|-----------------2-(2)---2-2-|-------2-------4-(4)-------2-------|
|-0---------0-(0)-------------|---2-------------------4-----------|
|-----------------------------|-3-------------2-(2)---------------|


  S S S S S S S S S S S S S S S S   S S S S S S S S S S S S S S S S
|---------0---------------0-------|-----------------2-0-0---0---2-0--|
|---3-3-3---3-2-3---3-3-3---3-2-3-|---0-0-0-0-0-2-3-------2---0------|
|---------------------------------|----------------------------------|
|-----4---------------0---4-------|-----0---4-----0---------2--------|
|-2---------------1---------------|-0--------------------------------|
|---------------------------------|-----------------4----------------|


  S S  S  S E S S +E  E S S S S   S S S S S S  S  S S S S S S S S S
|------0--0---------------------|-----0-0----------------------------|
|-----------3-2-2-(2)-2---------|-----0-0-3-2-(2)-2-----------0-2-0--|
|---------------1-(1)---2-------|-----0-0---------3---3---3-3--------|
|---2-(2)-----------------2-2---|-----2---2-------2---------2--------|
|-0-------------0-(0)---------2-|---2----------4--------4------------|
|-------------------------------|-3-----------------2----------------|


  S S S S S S S S S S S S S S S S   S S S S S S S S S S S S S S S S
|---------0---------------0-------|-----------------2-0-0---0---2-0--|
|---3-3-3---3-2-3---3-3-3---3-2-3-|---0-0-0-0-0-2-3-------2---0------|
|---------------------------------|----------------------------------|
|---------4-----------4-----------|-----0---4-------------2---2---2--|
|-2---------------1---------------|-0--------------------------------|
|---------------------------------|-------------------------0--------|


  S S  S S S S  S   S +S  S E S S S S   S S  S  S E S S +S  S S S S S S S
|-----^0-0----------------------------|------0--0-------------------------|
|----------3----2--^2-(2)-2-2---------|------0--0-3-2-2-(2)---------0-2-0-|
|-----^2---2-------^1-(1)-----2-------|------0--0-0---3-(3)-3---3-3-------|
|---2-^2-----2-(2)-^2-(2)-2-----2-2---|---2-(2)-------4-(4)---4-------4---|
|-0----------------^0-(0)-------------|-------------4---------------------|
|-----------------------------------0-|-3---------------------------------|


  S S S S S S S S +S  S S S S S S S   S S S S S S S S  S S S S S S S S
|---------0-----------------0-------|-----------------^2-0-0---0---2-0--|
|---3-3-3---3-2-3-----3-3-3---3-2-3-|---0-0-0-0-0-2-3-^0-----2---0------|
|---------4-----3-(3)-------3-----2-|---------2-----4-------------------|
|-----4-----------------4-------4---|-----4-----------^2---2-------2----|
|-2---------------------------------|-2---------------------------------|
|-----------------------------------|--------------------------0--------|


  S S  S S S S +S   S +S  S E S S S S   S S  S S E S S +S  S S S S S S S
|-----^0-0----------------------------|-----^0---------------------------|
|----------3-2-(2)-^2-(2)---2---------|-----^0---3-2-2-(2)-2-------0-2-0-|
|-----^2---2-------^1-(1)-----2-----0-|-----^0-------3-(3)-----2-2-------|
|---2-^2-----2-(2)-^2-(2)-2-----2-2---|---0----0-----4-(4)---4-----------|
|-0----------------^0-(0)-------------|----------------------------------|
|-------------------------------------|-3--------------------------------|


  S S S S S S S S S S S S S S S S   S S S S S S S S  S S S S S S S S
|---------0---------------0-------|-----------------^2-0-0---0---2-0--|
|---3-3-3---3-2-3---3-3-3---3-2-3-|---0-0-0-0-0-2-3-^0-----2---0------|
|---------4---------3-3-3-3-------|---------2-----4-------------------|
|-----4---------------4-----------|-----------------^2----------------|
|-2---------------2---------------|-2---------------------------------|
|---------------------------------|-----------------------------------|


   E  E E E Q  E S S    E Q  E  E E Q    E E E E E E E E
|-(0)------------5-7-|-^9------^7---5--|---------2---5-7-|
|---------0-2--------|-^7------^6-3----|-2-------2-------|
|-------2------2-----|-^7------^4------|-----2---2---2---|
|-----2-----2--------|-^0-7--7-^0------|---2---2---3-----|
|--0-----------------|-----------------|-0-------0-------|
|--------------------|-----------------|-----------------|


             H.=H           Q=40
   E E E S S   E  E  E  E     W
|-^9---5-9---^12-10--9----|-^-9----*|
|-^7---------^10-------12-|-^10----*|
|-^7---------^10----------|-^-9----*|
|-^0-7---7---^-0----12----|--------*|
|----------7--------------|-^-0----*|
|-------------------------|--------*|


Duration Legend
---------------
W - whole; H - half; Q - quarter; E - 8th; S - 16th; T - 32nd; X - 64th; a - acciaccatura
+ - note tied to previous; . - note dotted; .. - note double dotted
Uncapitalized letters represent notes that are staccato (1/2 duration)
Irregular groupings are notated above the duration line
Duration letters will always appear directly above the note/fret number it represents the
duration for.  Duration letters with no fret number below them represent rests.  Multi-
bar rests are notated in the form Wxn, where n is the number of bars to rest for.  Low
melody durations appear below the staff

Tablature Legend
----------------
 h   - hammer-on
 p   - pull-off
 b   - bend
 pb  - pre-bend
 r   - bend release (if no number after the r, then release immediately)
 /\  - slide into or out of (from/to "nowhere")
 s   - legato slide
 S   - shift slide
  - natural harmonic
[n]  - artificial harmonic
n(n) - tapped harmonic
 ~   - vibrato
 tr  - trill
 T   - tap
 TP  - trem. picking
 PM  - palm muting
\n/  - tremolo bar dip; n = amount to dip
 \n  - tremolo bar down
 n/  - tremolo bar up
/n\  - tremolo bar inverted dip
 =   - hold bend; also acts as connecting device for hammers/pulls
 <>  - volume swell (louder/softer)
 x   - on rhythm slash represents muted slash
 o   - on rhythm slash represents single note slash

Misc Legend
-----------
 |  - bar
||  - double bar
||o - repeat start
o|| - repeat end
*|  - double bar (ending)
 :  - bar (freetime)
 $  - Segno
 &  - Coda
Tempo markers -  = BPM(8/16=s8/s16), where s8 = swing 8ths, s16 = swing 16ths
Login or Register to remove this ad.

4 comments on One More Chance, One More Time

Heh, I tried working on

5

Heh, I tried working on arranging a few songs from this soundtrack. I didn't think this particular song would translate well to guitar, but it sounds like it does. Nice work.

Yeah, the song is in the key

Yeah, the song is in the key of A, which is one of guitar's better keys to work with arranging in standard.

It still took some tinkering with the range to get it all to fit too, but overall I'm happy with the result.

FANTASTIC!

FANTASTIC!

lol thanks

lol thanks