Ads

The Feeling That Doesn't Reach (Byousoku 5 Centimeter) Guitar Tab

Submitted: Jan 08, 2013 by limchd

4
Average: 4 (2 votes)
Download | Listen
Game: Byousoku 5 Centimeter
Composer(s): Tenmon, Masayoshi Yamazaki
Style: Arrangement, Fingerstyle

This song is also called Todoke Kanai Kimochi

AutoScroll: Slow | Medium | Fast
Title: Todoke Kanai Kimochi / The Feeling That Doesn't Reach
Artist: Tenmon
Album: 5 Centimeters Per Second
Tempo = 70
Nylon Guitar

Legend
^ - brush down

     ^                                      
E |-----------------4----------------------|
B |--6-------------------------------------|
G |--6-------------------------------------|
D |--6-------------------------------------|
A |--4-------------------------------------|
E |----------------------------------------|

  ^                                                      ^                    
-----------------4----------------------|-------------|----------------------|
--6-------------------------------------|--4----------|--2--1----------------|
--6--------------6----------------------|--------5----|--------3-------------|
--6-------------------------------------|--6-----6----|--3-------------------|
--4-------------------------------------|-----6-------|--1-------------------|
----------------------------------------|--4----------|----------------------|

  ^             ^                                                
-------------|-------------|----------------------|-------------|
-------------|-----2-------|--4--------------4----|--6----------|
--1-----1----|--3----------|--------6-------------|--------6----|
--3-----3----|--4--4-------|--6-----------6-------|-----6-------|
--3--3-------|--4----------|--------6-------------|--4----------|
--1----------|--2----------|--4-------------------|-------------|

  ^                                                                  
--------4-------------|--------4-------------|----------------------|
--6-------------------|--6-------------------|--4-------------------|
--6-----6-------------|--------6-------------|--------------5-------|
--6--6-----------6----|-----6-----------6----|-----------------6----|
--4-------------------|--4-------------------|--------3--6----------|
----------------------|----------------------|--4-------------------|

  ^                      ^                      ^                    
----------------------|----------------------|----------------------|
--2--1----------------|--------1-------------|--------2-------------|
--3-----3--------3----|--1-----1-------------|--3-------------------|
--3-------------------|--3-------------------|--4-----4-------------|
--1-----------1-------|--3--3----------------|--4--4----------------|
----------------------|--1-------------------|--2-------------------|

                                                                     
----------------------|----------------------|----------------------|
--4-----------4-------|--2--1--2-------------|--2--1--2-------------|
--------6-------------|-----------1----------|-----------1-----1----|
--6-----6-----6-------|--3-----------3-------|--3-----------3-------|
-----6-----6-----6----|--1-------------------|--1-------------------|
--4-------------------|----------------------|----------------------|

                                                                     
----------------------|----------------------|----------------------|
--2-----2-------------|--2-----2-------------|--2--1--2-------------|
-----5-----3----------|-----5-----3-----3----|-----------1----------|
--4-----------4-------|--4-----------4-------|--3-----------3-------|
----------------------|----------------------|--1-------------------|
--2-------------------|--2-------------------|----------------------|

                                                                     
----------------------|----------------------|----------------------|
--2--1--2-------------|--2-----2-------------|--------------4-------|
-----------1-----1----|-----5-----3-----3----|--5-------------------|
--3-----------3-------|--4-----------4-------|--6--------6-----6----|
--1-------------------|----------------------|-----3--6-------------|
----------------------|--2-------------------|--4-------------------|

                                                                     
--------6-------------|--------6-------------|--1-------------------|
--8-------------------|--8-------------------|--3-----------3-------|
-----8--0-----0-------|--8-----0-----0-------|--------3-----3-------|
-----8-----8-----8----|-----8-----8-----8----|-----3-----3-----3----|
--6-------------------|--6-------------------|--1-------------------|
----------------------|----------------------|----------------------|

                                                                     
----------------------|----------------------|----------------------|
--4--3----------------|----------------------|--------4-------------|
--5--3--5-------------|--3-----------3-------|--5--------------3----|
-----------5-----5----|-----0-----0-----0----|----------------------|
--3-----6-----6-------|--------1-------------|-----6--3-------------|
----------------------|--3-------------------|--4-------------------|

                                                                     
----------------------|--------3-------------|--------------6-------|
--6-----4-----6-------|--4-----6-------------|-----------6----------|
----------------------|-----3----------------|--------3-------------|
-----3-----3-----3----|----------------------|-----0----------------|
--------5-----5-------|--6-------------------|----------------------|
--6-------------------|----------------------|--3-------------------|

                                                                     
-----------------3----|----------------------|--------------3-------|
--------4-------------|--6-----4-----6-------|--4-----6-------------|
--5-------------------|----------------------|-----3-----3-----3----|
----------------------|-----3-----3-----3----|----------------------|
-----6--3-------------|--------5-----5-------|--6-------------------|
--4-------------------|--6-------------------|----------------------|

                                                                 ^
--------------3-------|-----------3--6-------|--10-13---------|--18---------||
--------6-------------|--------6-------------|----------------|--18---------||
-----3-----3-----3----|-----3----------------|--8-------------|--19---------||
----------------------|----------------------|----------------|-------------||
--6-------------------|--6-------------------|----------------|-------------||
----------------------|----------------------|----------------|-------------||
Login or Register to remove this ad.