Ads

End Theme (Byousoku 5 Centimeter) Guitar Tab

Submitted: Mar 11, 2014 by Basisti94

5
Average: 5 (6 votes)
Download | Listen
Game: Byousoku 5 Centimeter
Composer(s): Tenmon, Masayoshi Yamazaki
Style: Arrangement, Fingerstyle, Natural harmonics

AutoScroll: Slow | Medium | Fast
                            End Theme
                                
5 Centimeters Per Second
Tenmon
Guitar arrangement by Basisti94 (Miro Laaksonen)
9.3.2014

Tempo ~ 60

     H.           Q       Q    Q     Q.     E     E  E   E  E  E   E   E  S  S  
E||---------------7----|--8-----------------7--|--8-----10--8--8---------------|
B||--------------------|-------8----10---------|--------------------------8----|
G||--------------------|-----------------------|-----9----------------10----10-|
D||--------------------|--7--------------------|--7---------------10-----------|
A||--------------------|-------7-----8---------|---------7-----8---------------|
E||--------------------|-----------------------|-------------------------------|


                                ^    ^                   
  E   E   E  E  E  E  E  S S    Q    E  E  E  E  E  S S  
-----------------------------|--0-----------------------|
-------------8--1--------1-3-|-------3--1--1----------0-|
--9-------------------2------|--2----0-----------0--2---|
---------12--------2---------|--3----0--------2---------|
-----10---------0------------|-------------3------------|
--8--------------------------|--1----3------------------|


  ^                                     ^     ^              
  S S S S S E.  E  E  E  S S    S S S S E  E  E  E  S S S S  
-----------------------------|------------------------------|
--1------------------------0-|--1-----1-3--1--1-------------|
--2---2---0-----2--------2---|------2---0-----2---------0---|
--2-2---2---2---------3------|----2-----------3-----3-----3-|
--0----------------3---------|--0----------------3----3-----|
----------0-----1------------|----------0-----1-------------|


                                                       NH        
  E  E  E  E  E  E  E  S S    Q    E  E  H             H         
---------------------------|----------------------|-------------|
---------------------------|----------------------|-------------|
-----------0---------------|----------------------|--<>0--------|
--2-----0----------------0-|--2----0--------------|-------------|
--3--3--------3--------3---|--0-------3--3--------|-------------|
-----------------0--5------|--1----3-----0--------|-------------|


  E  E  H           E  E  H           Q    Q    Q       E  E  Q.     E   
--0-----3--------|--0-----3--------|-----------------|------------------|
-----------------|-----------------|--3---------0----|--1--0------------|
-----------------|-----------------|-----------------|--------2------2--|
-----2-----------|-----2-----------|-------0---------|------------------|
--3--------------|--3--------------|-----------------|--0---------------|
-----------------|-----------------|--3--------------|------------------|


  Q    Q    Q       Q    H           Q    Q    Q       H.            
-----------------|----------------|-----------------|--0------------|
-----------------|-------1--------|--3----1----3----|---------------|
--0---------0----|--2-------------|------------0----|---------------|
-----------------|----------------|-------0---------|---------------|
-------2---------|-------3--------|-----------------|--3------------|
--0--------------|--1-------------|--3--------------|---------------|


  E  E  H           E  E  H           Q    Q    Q       E  E  Q.     E   
--0-----3--------|--0-----3--------|-----------------|------------------|
-----------------|-----------------|--3---------0----|--1--0------------|
-----------------|-----------------|-----------------|--------2------2--|
-----2-----------|-----2-----------|-------0---------|------------------|
--3--------------|--3--------------|-----------------|--0---------------|
-----------------|-----------------|--3--------------|------------------|


                                     ^                                  
  Q    Q    Q       Q    H           E  E  Q    Q       Q    Q    Q     
-----------------|----------------|------------------|-----------------|
-----------------|-------1--------|--3-----1----3----|--1--------------|
--0---------0----|--2-------------|--0---------------|------------2----|
------------0----|-------3--------|-----0------------|-------2---------|
-------2---------|----------------|------------------|--0--------------|
--0--------------|--1-------------|--3---------------|-----------------|


  H        Q       E  E  Q    Q       H        Q       E  E  Q    Q     
----------------|------------------|--1-------------|-------------0----|
--1--------1----|--1---------------|-----------0----|--1---------------|
----------------|--2----------2----|----------------|--------2---------|
--2--------2----|--------3---------|-----------0----|-----2------------|
----------------|-----3------------|----------------|--0---------------|
----------------|--1---------------|----------------|------------------|


   ^                                         
   H.              Q    Q     Q     E   S S  
--10------------|--8----------------------7-|
---8------------|-------8----10--------10---|
---7------------|------------------10-------|
---5------------|--7------------------------|
----------------|-------7-----8-------------|
----------------|---------------------------|


            ^                                                          
  S S  S S  E  E  E   E   S  S S  S    S  S  S  S S S E  E  E  E  S S  
--8--------10--8--8-----------------|-----------------3---------------|
------10-----------------------8----|-------------3------1--------1-3-|
----9----9--9------------10------10-|--9----------0------2-----2------|
--7------------------10-----10------|-------10------0-------2---------|
------------7-----8-----------------|----10----10--------0------------|
------------------------------------|--8----------3-------------------|


                                 ?                             
          ^                                                    
  S S S S S S E  E  E  E  S S    S S S S S S S S E  E  E  S S  
--0---------------------------|-------------------------------|
----------3---1--1----------0-|--1--------------------------0-|
----------0------------0--2---|------2---0-------2--------2---|
------2-0---0-------2---------|----2---2-----2---------3------|
----3------------3------------|--0---------2---3----3---------|
--1-------3-------------------|----------0-------1------------|


         ^                                                    
  S S E  S S S S S S E  S S S S    E  E  S S E  E  E  E  S S  
--------------------------------|----------------------------|
--1------3---1-0----------------|----------------------------|
------2--0-------2----------0---|------------0---------------|
----2------2---------3----3---3-|--2-----0-----------------0-|
--0----------------3----3-------|--3--3----2----3--------3---|
---------0-------1--------------|--------3---------0--5------|


                            ^    ^                                 ^           
  E  E  E  E  Q.     S S    Q    E  E  E  E  E  S  S     H         Q     Q     
-------------------------|--0-------------------8-10-|--12--------10----------|
---------------------1-3-|-------0--1--1-------------|------------------13----|
-------------------------|--2----------------0-------|------------12----------|
--2-----0----------------|-------0--------2----------|------------12----------|
-----0-----3--3----------|-------------3-------------|---8--------10----------|
--1-----3-----0----------|--1----3-------------------|------------------------|


   E   E   E   E   Q     Q       E  E  E  E  Q    Q     
------------------13----11----|--------------1---------|
--13----------13--------------|--3----------------3----|
----------13------------------|--------3---------------|
------13----------------------|-----3-----3------------|
--11--------------------------|--1---------------------|
------------------------------|------------------------|


  E  E  E  E  E  E  E   E      W                                      
--0-----------0--3--8--15--|--12----------------|-------------------||
-----------1---------------|--------------------|-------------------||
--------0------------------|--12----------------|-------------------||
-----2---------------------|--------------------|-------------------||
--3------------------------|--------------------|-------------------||
---------------------------|--------------------|-------------------||




Duration Legend
---------------
W - whole
H - half
Q - quarter
E - 8th
S - 16th
T - 32nd
X - 64th
. - note dotted
|-n-|  - n-tuplets


Tablature Legend
----------------
L - tied note
x - dead note
g - grace note
(n) - ghost note
> - accentuded note
NH - natural harmonic
AH - artificial harmonic
TH - tapped harmonic
SH - semi harmonic
PH - pitch harmonic
h - hammer on
p - pull off
b - bend
S - shift slide
s - legato slide
/ -  slide into from below or out of upwards
\ -  slide into from above or out of downwards
~ - vibrato
W - wide vibrato
tr - trill
TP - tremolo picking
T - tapping
S - slap
P - pop
< - fade in
^ - brush up
v - brush down
Login or Register to remove this ad.