Main Theme (Bubble Bobble) Guitar Tab

Submitted: Apr 19, 2010 by diralark

5
Average: 5 (2 votes)
Download | Listen
Game: Bubble Bobble
Composer(s): Tadashi Kimijima
Style: Arrangement, Fingerstyle, Transcription

AutoScroll: Slow | Medium | Fast
Main Theme                                              

Music by Tadashi Kimijima  >> bubbleb.mid (unknow arranger) >> tab by diralark

Guitar, tempo = 132

     E  E  E.  S E  E  E  E     E  E  S E.  E  E  E  S S    E  E  E  E  E  S S E  E   
E||--------------------------|---------------------------|---------------------------|
B||--1--0--------0-----------|-----------------1---------|---------------------------|
G||--------2---0----2--0-----|--2--0--------0------------|-----2-----------2------0--|
D||-----------------------3--|--------3-2------------2-0-|-----0--2--3--0--2-3-------|
A||--3-----3-----3-----3-----|--3-----3-----3-----3------|--3-----------0------0-----|
E||--------------------------|---------------------------|---------------------------|


  E  E  S E.  E  E  E  E     E  E  E.  S E  E  E  E     E  E  S E.  E  E  E  S S  
--------------------------|--------------------------|---------------------------|
--------0--------------0--|--1--0--------0-----------|-----------------1---------|
--0--2----2---0--0--2-----|--------2---0----2--0-----|--2--0--------0------------|
--------------------------|-----------------------3--|--------3-2------------2-0-|
--0-----0-----------0-----|--3-----3-----3-----3-----|--3-----3-----3-----3------|
--------------3-----------|--------------------------|---------------------------|


                                                           III --                       
  E  E  E  E  E  S S E  E     E  E  S E.  E  E  E  E       E      E  E  E  E  E  E  E   
---------------------------|--------------------------||----------3--5--6--7-----------|
---------------------------|--------0-----1-----------||----------------------------0--|
-----2-----------2------0--|--0--2----0------0--2--3--||*--4------------------0--2--0--|
-----0--2--3--0--2-3-------|--------------------------||*---------5-----5--------------|
--3-----------0------0-----|--0-----0-----------0-----||-------------------------------|
---------------------------|--------------3-----------||---3---------3-----3-----3-----|


  III          VIII               III --                        
  E   E  E  E  E     E   E  E     E      E  E  E   E  E  E  E   
------3--5--7--8---------------|---------3--5--7--10-----------|
-------------------------------|--3-------------------------0--|
--5---5-----5------------------|----------------------0--2--0--|
----------------------------9--|---------5-----5---------------|
--3------3----------10--12-----|-------------------------------|
---------------8---------8-----|--3---------3------------3-----|


  III --           VIII --                                                                  
  E      E  E  E   E       E   E   E     E  E  E  E  E  E  Q       E  E  E  E  E  E  E  E   
---------3--5--7--12------------------|--1--1-----1-----0-------|--0--0-----0-----0--0--0--|
--5-----------------------------------|--------------------3----|--------------------------|
---------5-----5-------------------9--|-------------------------|--------------------------|
--------------------------10--12--10--|--3-----3-----3-----3----|--2-----2-----2-----2-----|
--3---------3-------------------------|-------------------------|--------------------------|
-------------------8-----------8------|-------------------------|--------------------------|


|1st ending                                            |2nd ending

  E  E  E  E  E  E  E  E     E  E  E  E  E  E  E  E       E  E  E  E  E  E  E  E   
--------------------0-----|---------------------------||-----------------0-----0--|
--3--3-----3--------------|--3--3-----3-----3---------||--3--3-----3--------------|
-----------2-----2-----2--|-----------------0--2--3--*||-----------0-----0--0--0--|
--0-----0-----------------|--0-----0-----0-----0-----*||--0-----0-----------------|
--------------0-----0-----|---------------------------||--------------------------|
--------------------------|---------------------------||--------------3-----3-----|


                   Da Capo

  H        E  E  E  E    
-----------------------||
--1--------L--------0--||
--------------0--2-----||
-----------------------||
--3--------L-----0--2--||
--------------3--------||

Legend
---------------
W - whole
H - half
Q - quarter
E - 8th
S - 16th
. - note dotted
Login or Register to remove this ad.

2 comments on Main Theme

Lotsa fun

5

Awesome! Thanks, diralark. =)

MTM (Brandon)

You're welcome sir

You're welcome sir MassTheMono ! oh i just found it playable online -(^^)-
http://www.onlinearcadegames.nl/index.php/Bubble-Bobble.html