The Champion (Breath of Fire III) Bass Tab

Submitted: Jun 29, 2010 by Daugreano (Last updated: Jun 29, 2010)

0
Download | Listen
Game: Breath of Fire III
Composer(s): Yoshino Aoki, Akari Kaida
Style: Transcription

This song is also called Tournament of Champions

AutoScroll: Slow | Medium | Fast
Song: The Champion
Game: Breath Of Fire III
Composer: Akari Kaida, Yoshino Aoki
Tabbed by: Daugreano

Thank you, Auriplane.

Bass Guitar:

                             4x                                Play the next four measures 5x 
   E.   E.   E   E.   E.   E     S  E.   E   E   E.   E.   E     E.   E.   E   E.   E.   E
G|-----------------------------|-------------------------------|-----------------------------|
D|-----------0---1----0--------|-------------0---1----0--------|-----------0---1----0--------|
A|-0----3------------------3---|----0----3-----------------3---|-0----3------------------3---|
E|-----------------------------|-------------------------------|-----------------------------|

   E.   E.   E   E.   E.   E     E.   E.   E   E.   E.   E     S  E.   E   E   E.   E.   E   
G|-----------------------------|-----------------------------|-------------------------------|
D|-----------0---1----0--------|-----------0---1----0--------|-------------0---1----0--------|
A|-0----3------------------3---|-0----3------------------3---|----0----3-----------------3---|
E|-----------------------------|-----------------------------|-------------------------------|


   E.   E.   E   E.   E.   E     S  E.   E   E   E.   E.   E     E.   E.   E   E.   E.   E
G|-----------------------------|-------------------------------|-----------------------------|
D|-----------0---1----0--------|-------------0---1----0--------|-----------0---1----0--------|
A|-0----3------------------3---|----0----3-----------------3---|-0----3------------------3---|
E|-----------------------------|-------------------------------|-----------------------------|

   W.       E.   E.   E   E.   E.   E     S  E.   E   E   E.   E.   E     E.   E.   E   E.   E.   E
G|--------|-----------------------------|-------------------------------|-----------------------------|
D|--------|-----------0---1----0--------|-------------0---1----0--------|-----------0---1----0--------|
A|--------|-0----3------------------3---|----0----3-----------------3---|-0----3------------------3---|
E|--------|-----------------------------|-------------------------------|-----------------------------|

   S  E.   E   E   E.   E.   E  
G|-------------------------------|
D|-------------0---1----0--------|
A|----0----3-----------------3---|
E|-------------------------------|

Play the four measures after the blank measure 3x.

Login or Register to remove this ad.

1 comment on The Champion

If the two measures you wrote

If the two measures you wrote are patterns A and B, and pattern C is a single measure of rest, then the song goes like this:

Intro

   AAAAAB

Repeating part

   AAAB x5
   ABAC 
   ABAB x3

EDIT: Tab was updated so I guess this comment doesn't apply anymore :-)