Casually (Breath of Fire III) Guitar Tab

Submitted: Nov 01, 2011 by BacardiBreezer

0
Download | Listen
Game: Breath of Fire III
Composer(s): Yoshino Aoki, Akari Kaida
Style: 2 or more instruments, Transcription

AutoScroll: Slow | Medium | Fast
Casually
Breath of Fire 3
Composer: Yoshino Aoki, Akari Kaida
Tabbed by Bacardibreezer
10/25/11

Guitar 1, Lead (Vibraphone)

Rest for four measures

e|--------------------------------13~--|--------------------------|
B|--------------13-15-15-16-13-15------|--16h15h13h15-------------|
G|----------15-------------------------|----------------15--------|
D|--14/15------------------------------|---------------------15~--|
A|-------------------------------------|--------------------------|
E|-------------------------------------|--------------------------|

e|--------------------------------13~--|--------------------------|
B|--------------13-15-15-16-13-15------|--16---14---------16~-----|
G|----------15-------------------------|-------------15-----------|
D|--14/15------------------------------|--------------------------|
A|-------------------------------------|--------------------------|
E|-------------------------------------|--------------------------|

e|--13/15---13--------------------13~--|--15---------------------------|
B|--------------16-15-15-13-15-16------|------------13---15------------|
G|-------------------------------------|-------15------------15--------|
D|-------------------------------------|-------------------------15~---|
A|-------------------------------------|-------------------------------|
E|-------------------------------------|-------------------------------|

e|--13/15---13--------------------13~--|--15---13----------------------|
B|--------------16-15-15-13-15-16------|------------16--14-------16~---|
G|-------------------------------------|---------------------15--------|
D|-------------------------------------|-------------------------------|
A|-------------------------------------|-------------------------------|
E|-------------------------------------|-------------------------------|

e|------------------|------------------|-------------------|
B|--------------14--|--------------14--|--------------16---|
G|----------13------|----------15------|----------15-------|
D|------15----------|--13--16----------|--13--16-----------|
A|--16--------------|------------------|-------------------|
E|------------------|------------------|-------------------|

e|------------------|------------------|-------------------|
B|--------------14--|------------------|-------------14----|
G|----------13------|--------------15--|-------------------|
D|------15----------|----------15------|----------15-------|
A|--16--------------|--13--16----------|--13--16-----------|
E|------------------|------------------|-------------------|

e|------------------------|-------------------------------------|
B|------------------------|-------------------------------------|
G|--------------------13--|--14---------------------------------|
D|-----13-16-------14-----|------------13-15-15-13--------------|
A|--13----------16--------|------12-15-------------15-----------|
E|------------------------|---------------------------13---13---|

Rest until song repeats.



Guitar 2, Rhythm (Clean jazzy guitar)

e|--13---13----12/13--13--|---13---13----16-16-16-16---|
B|--15---15----14/15--15--|---15---15----16-16-16-16---|
G|--14---14----13/14--14--|---14---14----14-14-14-14---|
D|------------------------|----------------------------|
A|------------------------|----------------------------|
E|------------------------|----------------------------|

e|--13---13----12/13--13--|---13--13-------------------|
B|--15---15----14/15--15--|---15--15-------------------|
G|--14---14----13/14--14--|---14--14-------------------|
D|------------------------|----------------------------|
A|------------------------|----------------------------|
E|------------------------|----------------------------|

$
e|--13---13----12/13--13--|---13---13----16-16-16-16---|
B|--15---15----14/15--15--|---15---15----16-16-16-16---|
G|--14---14----13/14--14--|---14---14----14-14-14-14---|
D|------------------------|----------------------------|
A|------------------------|----------------------------|
E|------------------------|----------------------------|

e|--13---13----12/13--13--|---13---13----16-16-16-16---|
B|--15---15----14/15--15--|---15---15----16-16-16-16---|
G|--14---14----13/14--14--|---14---14----14-14-14-14---|
D|------------------------|----------------------------|
A|------------------------|----------------------------|
E|------------------------|----------------------------|

e|--13---13----12/13--13--|---13---13----13--13--------|
B|--15---15----14/15--15--|---15---15----13--13--------|
G|--14---14----13/14--14--|---15---15----14--14--------|
D|------------------------|----------------------------|
A|------------------------|----------------------------|
E|------------------------|----------------------------|

e|---9----9----11--11-----|---11---11----10/11--11-----|
B|---9----9----11--11-----|---12---12----11/12--12-----|
G|--10---10----12--12-----|---11---11-----9/10--10-----|
D|------------------------|----------------------------|
A|------------------------|----------------------------|
E|------------------------|----------------------------|

e|--13---13----12/13--13--|---13---13----13---15-------|
B|--15---15----14/15--15--|---15---15----15---15-------|
G|--14---14----13/14--14--|---15---15----15---15-------|
D|------------------------|----------------------------|
A|------------------------|----------------------------|
E|------------------------|----------------------------|

e|--13---13----12/13--13--|---13---13----16-16-16-16---|
B|--15---15----14/15--15--|---15---15----16-16-16-16---|
G|--14---14----13/14--14--|---14---14----14-14-14-14---|
D|------------------------|----------------------------|
A|------------------------|----------------------------|
E|------------------------|----------------------------|

e|--13---13----12/13--13--|---13---13----13--13--------|
B|--15---15----14/15--15--|---15---15----13--13--------|
G|--14---14----13/14--14--|---15---15----14--14--------|
D|------------------------|----------------------------|
A|------------------------|----------------------------|
E|------------------------|----------------------------|

e|---9----9----11--11-----|---11---11----10/11--11-----|
B|---9----9----11--11-----|---12---12----11/12--12-----|
G|--10---10----12--12-----|---11---11-----9/10--10-----|
D|------------------------|----------------------------|
A|------------------------|----------------------------|
E|------------------------|----------------------------|

Rest for 16 measures

e|--13---13----12/13--13--|---13---13----13---13-------|
B|--15---15----14/15--15--|---15---15----15---15-------|
G|--14---14----13/14--14--|---14---14----14---14-------|
D|------------------------|----------------------------|
A|------------------------|----------------------------|
E|------------------------|----------------------------|

e|--13---13----12/13--13--|---13---13----16-16-16-16---|
B|--15---15----14/15--15--|---15---15----16-16-16-16---|
G|--14---14----13/14--14--|---14---14----14-14-14-14---|
D|------------------------|----------------------------|
A|------------------------|----------------------------|
E|------------------------|----------------------------|

e|--13---13----12/13--13--|---13---13----13---13-------|
B|--15---15----14/15--15--|---15---15----15---15-------|
G|--14---14----13/14--14--|---14---14----14---14-------|
D|------------------------|----------------------------|
A|------------------------|----------------------------|
E|------------------------|----------------------------|

e|--13---13----12/13--13--|---13--13-------------------|
B|--15---15----14/15--15--|---15--15-------------------|
G|--14---14----13/14--14--|---14--14-------------------|
D|------------------------|----------------------------|
A|------------------------|----------------------------|
E|------------------------|----------------------------|

Return to $




Guitar 3, Piano

e|--1-------1-----4--2--1-|---1------4--4---|
B|--3-------3-----4-----3-|---3------4--4---|
G|--2-------3-----2-----2-|---3------2--2---|
D|------------------------|-----------------|
A|------------------------|-----------------|
E|------------------------|-----------------|

e|--1---------1----1----3----1---|---1-------4---2---1---|
B|--3---------3----3---------3---|---3-------4-------3---|
G|--2---------3----2---------2---|---3-------2-------2---|
D|-------------------------------|-----------------------|
A|-------------------------------|-----------------------|
E|-------------------------------|-----------------------|

e|--1----1-------------------|---------------|
B|--3----3---------2----4----|---4-----4-----|
G|--3----2--------------6----|---4-----4-----|
D|-----------------3---------|---4-----3-----|
A|---------------------------|---------------|
E|---------------------------|---------------|

e|--1---------1----1----3----1---|---1-------4---2---1---|
B|--3---------3----3---------3---|---3-------4-------3---|
G|--2---------3----2---------2---|---3-------2-------2---|
D|-------------------------------|-----------------------|
A|-------------------------------|-----------------------|
E|-------------------------------|-----------------------|

e|--1----1-------------------|------------------------0---1----|
B|--3----3---------2----4----|---4-----4---------2--4-----2----|
G|--3----2--------------6----|---4------------------------1----|
D|-----------------3---------|---4-----3-----------------------|
A|---------------------------|---------------------------------|
E|---------------------------|---------------------------------|

e|---2---------2---------4----------1---------2---|------0------5----|
B|---4---------4---------6----------2---------4---|---4--2------6----|
G|---3---------3---------6----------1---------3---|---4---------5----|
D|------------------------------------------------|------------------|
A|------------------------------------------------|------------------|
E|------------------------------------------------|------------------|

e|----------8--8---10-------|------------------6--5~---|
B|-----6~-------------------|-------6-------8----------|
G|--------------------10~---|---7----------------------|
D|--------------------------|--------------------------|
A|--------------------------|--------------------------|
E|--------------------------|--------------------------|

e|---------8~-----13----13------11--10~---|
B|---10-11--------------------------------|
G|--------------------------11------------|
D|----------------------------------------|
A|----------------------------------------|
E|----------------------------------------|

                               Song loops here
e|---6-8-5-6-8-5-------5~---|----1--------4---4-----|
B|----------------7---------|----3--------4---4-----|
G|--------------------------|----3--------2---2-----|
D|--------------------------|-----------------------|
A|--------------------------|-----------------------|
E|--------------------------|-----------------------|
Login or Register to remove this ad.