Ads

Wicked Flight (Bravely Default) Bass/Guitar Tab

Submitted: Mar 29, 2015 by gudz (Last updated: Nov 13, 2015)

5
Average: 5 (1 vote)
Download | Listen
Game: Bravely Default
Composer(s): Revo
Style: 2 or more instruments, Transcription

This song is also called Airy Boss Fight 2

AutoScroll: Slow | Medium | Fast
Wicked Flight
Bravely Default
Tabbed by gudz

Lead Guitar

     Q       W                   W                   W                 
E||-------|-------------------|-------------------|-------------------|
B||-------|-------------------|-------------------|-------------------|
G||-------|-------------------|-------------------|-------------------|
D||-------|-------------------|-------------------|-------------------|
A||-------|-------------------|-------------------|-------------------|
E||-------|-------------------|-------------------|-------------------|


  W                   W                   W                   W                 
-------------------|-------------------|-------------------|-------------------|
-------------------|-------------------|-------------------|-------------------|
-------------------|-------------------|-------------------|-------------------|
-------------------|-------------------|-------------------|-------------------|
-------------------|-------------------|-------------------|-------------------|
-------------------|-------------------|-------------------|-------------------|


  W                   H.           Q        H.           Q      
-------------------|---------------------|---------------------|
-------------------|---------------------|---------------------|
-------------------|--6------------Ls----|--4------------Ls----|
-------------------|---------------------|---------------------|
-------------------|---------------------|---------------------|
-------------------|---------------------|---------------------|


  W                   H        H            H.           Q      
-------------------|---------------------|---------------------|
-------------------|---------------------|---------------------|
--7----------------|--6--------2s--------|--6------------Ls----|
-------------------|---------------------|---------------------|
-------------------|---------------------|---------------------|
-------------------|---------------------|---------------------|


  H.           Q        W                   H        H         
---------------------|-------------------|--------------------|
---------------------|-------------------|--------------------|
--4------------Ls----|--7----------------|--6--------9--------|
---------------------|-------------------|--------------------|
---------------------|-------------------|--------------------|
---------------------|-------------------|--------------------|


  Q    E  E  E  E  E  E     E  E  E  E  H           Q    E  E  E  E  E  E   
--7-------5-----------7--|--L-----5--------------|--7-------5-----------7--|
-------7--------7--------|-----7--------7--------|-------7--------7--------|
-------------------------|-----------------------|-------------------------|
-------------------------|-----------------------|-------------------------|
-------------------------|-----------------------|-------------------------|
-------------------------|-----------------------|-------------------------|


  E  E  Q     Q    Q       Q    E  E  E  E  E  E     E  E  E  E  H         
--L-----5----10----9----|--7-------5-----------7--|--L-----5--------------|
-----7------------------|-------7--------7--------|-----7--------7--------|
------------------------|-------------------------|-----------------------|
------------------------|-------------------------|-----------------------|
------------------------|-------------------------|-----------------------|
------------------------|-------------------------|-----------------------|


  Q    E  E  E  E  E  E     E  E  Q     Q    Q        H.           Q     
--7-------5-----------7--|--L-----5----10----9----|--10-----------------|
-------7--------7--------|-----7------------------|---------------------|
-------------------------|------------------------|---------------------|
-------------------------|------------------------|---------------------|
-------------------------|------------------------|---------------------|
-------------------------|------------------------|---------------------|


  W                   W                   W                   W                 
-------------------|-------------------|-------------------|-------------------|
-------------------|-------------------|-------------------|-------------------|
-------------------|-------------------|-------------------|-------------------|
-------------------|-------------------|-------------------|-------------------|
-------------------|-------------------|-------------------|-------------------|
-------------------|-------------------|-------------------|-------------------|


  W                   W                   W                   W                 
-------------------|-------------------|-------------------|-------------------|
-------------------|-------------------|-------------------|-------------------|
-------------------|-------------------|-------------------|-------------------|
-------------------|-------------------|-------------------|-------------------|
-------------------|-------------------|-------------------|-------------------|
-------------------|-------------------|-------------------|-------------------|


  W                   W                   W                   W                 
-------------------|-------------------|-------------------|-------------------|
-------------------|-------------------|-------------------|-------------------|
-------------------|-------------------|-------------------|-------------------|
-------------------|-------------------|-------------------|-------------------|
-------------------|-------------------|-------------------|-------------------|
-------------------|-------------------|-------------------|-------------------|


  W                    H         E  E  E   E     E  E  E  E  E  E  E  E   
-------------------|--10---------L-----5--10--|--9-----5--9--8-----5--8--|
-------------------|----------------6---------|-----6-----------6--------|
-------------------|--------------------------|--------------------------|
-------------------|--------------------------|--------------------------|
-------------------|--------------------------|--------------------------|
-------------------|--------------------------|--------------------------|


  E  E  E  E  E  E  E  E     E  E  E  E  E  E  E  E   
--7--------7--6--------6--|--5--------5--4--5--7--9--|
--------7-----------7-----|--------7-----------------|
-----7-----------7--------|-----7--------------------|
--------------------------|--------------------------|
--------------------------|--------------------------|
--------------------------|--------------------------|


   H         E  E  E   E     E  E  E  E  E  E   E   E   
--10---------L-----5--10--|--9-----5--9--8--9--10--11--|
----------------6---------|-----6----------------------|
--------------------------|----------------------------|
--------------------------|----------------------------|
--------------------------|----------------------------|
--------------------------|----------------------------|


   E  E  E   E   E  E  E   E      E  E  E   E  E  E  E  E   
--12-----7--12--11-----7--11--|--10-----7--10--9-----7--9--|
------8-------------8---------|------8------------8--------|
------------------------------|----------------------------|
------------------------------|----------------------------|
------------------------------|----------------------------|
------------------------------|----------------------------|


   E  E   E   E  E  E   E  E      E  E   E   E   E  E   E   E   
--10---------10--9---------9--|--12---------12--10---------10--|
------7--10---------7--10-----|------7--10----------7--10------|
------------------------------|--------------------------------|
------------------------------|--------------------------------|
------------------------------|--------------------------------|
------------------------------|--------------------------------|


   E  E  E   E  E  E  E  E     E  E  E  E  E  E  E  E     W                 
--10--------10--8--------8--|--7--------7--5--------5--|--7----------------|
------5--8---------5--8-----|-----5--8--------5--8-----|-------------------|
----------------------------|--------------------------|-------------------|
----------------------------|--------------------------|-------------------|
----------------------------|--------------------------|-------------------|
----------------------------|--------------------------|-------------------|


  E   S  S  E   E   E   E   E   E      W                 
--L--14-15-14--12--11--------------|--------------------|
-----------------------13--12--10--|--12----------------|
-----------------------------------|--------------------|
-----------------------------------|--------------------|
-----------------------------------|--------------------|
-----------------------------------|--------------------|


   E   S  S  E   E   E   E   E   E      W                 
------14-15-17--15--14--12--11--12--|--14----------------|
---L--------------------------------|--------------------|
------------------------------------|--------------------|
------------------------------------|--------------------|
------------------------------------|--------------------|
------------------------------------|--------------------|


   E   S  S  E   E   E   E   E   E      E   E   E   E   E   E   E   E   
---L--17-19-20--19--17--------------|----------22----------20----------|
------------------------20--19--17--|------19----------17----------16--|
------------------------------------|--19----------17----------16------|
------------------------------------|----------------------------------|
------------------------------------|----------------------------------|
------------------------------------|----------------------------------|


         |---3---|   |---3---|   |---3---|                              
   Q     E   E   E   E   E   E   E   E   E      H         E  E  E   E   
--19----17--19--20--19--17------------------|--10---------L-----5--10--|
----------------------------20--19--17---L--|----------------6---------|
--------------------------------------------|--------------------------|
--------------------------------------------|--------------------------|
--------------------------------------------|--------------------------|
--------------------------------------------|--------------------------|


  E  E  E  E  E  E  E  E     E  E  E  E  E  E  E  E   
--9-----5--9--8-----5--8--|--7--------7--6--------6--|
-----6-----------6--------|--------7-----------7-----|
--------------------------|-----7-----------7--------|
--------------------------|--------------------------|
--------------------------|--------------------------|
--------------------------|--------------------------|


  E  E  E  E  E  E  E  E      H         E  E  E   E   
--5--------5--4--5--7--9--|--10---------L-----5--10--|
--------7-----------------|----------------6---------|
-----7--------------------|--------------------------|
--------------------------|--------------------------|
--------------------------|--------------------------|
--------------------------|--------------------------|


  E  E  E  E  E  E   E   E      E  E  E   E   E  E  E   E   
--9-----5--9--8--9--10--11--|--12-----7--12--11-----7--11--|
-----6----------------------|------8-------------8---------|
----------------------------|------------------------------|
----------------------------|------------------------------|
----------------------------|------------------------------|
----------------------------|------------------------------|


   E  E  E   E  E  E  E  E      E  E   E   E  E  E   E  E   
--10-----7--10--9-----7--9--|--10---------10--9---------9--|
------8------------8--------|------7--10---------7--10-----|
----------------------------|------------------------------|
----------------------------|------------------------------|
----------------------------|------------------------------|
----------------------------|------------------------------|


   E  E   E   E   E  E   E   E      E  E  E   E  E  E  E  E   
--12---------12--10---------10--|--10--------10--8--------8--|
------7--10----------7--10------|------5--8---------5--8-----|
--------------------------------|----------------------------|
--------------------------------|----------------------------|
--------------------------------|----------------------------|
--------------------------------|----------------------------|


  E  E  E  E  E  E  E  E     E  E  E  E  E  E  E  E   
--7--------7--8--------8--|--8--------8--6--------6--|
-----5--8--------5--8-----|-----3--6--------3--6-----|
--------------------------|--------------------------|
--------------------------|--------------------------|
--------------------------|--------------------------|
--------------------------|--------------------------|


  E  E  E  E  E  E  E   E      H         E  E  E   E   
--5--------------5--9--12--|--10---------L-----5--10--|
-----------5--8------------|----------------6---------|
-----2--6------------------|--------------------------|
---------------------------|--------------------------|
---------------------------|--------------------------|
---------------------------|--------------------------|


  E  E  E  E  E  E  E  E     E  E  E  E  E  E  E  E   
--9-----5--9--8-----5--8--|--7--------7--6--------6--|
-----6-----------6--------|--------7-----------7-----|
--------------------------|-----7-----------7--------|
--------------------------|--------------------------|
--------------------------|--------------------------|
--------------------------|--------------------------|


  E  E  E  E  E  E  E  E      H         E  E  E   E   
--5--------5--4--5--7--9--|--10---------L-----5--10--|
--------7-----------------|----------------6---------|
-----7--------------------|--------------------------|
--------------------------|--------------------------|
--------------------------|--------------------------|
--------------------------|--------------------------|


  E  E  E  E  E  E   E   E      E  E  E   E   E  E  E   E   
--9-----5--9--8--9--10--11--|--12-----7--12--11-----7--11--|
-----6----------------------|------8-------------8---------|
----------------------------|------------------------------|
----------------------------|------------------------------|
----------------------------|------------------------------|
----------------------------|------------------------------|


   E  E  E   E  E  E  E  E     E  E  E  E  E  E  E  E   
--10-----7--10--9-----7--9--|--8--------8--7--------7--|
------8------------8--------|-----5--8--------5--8-----|
----------------------------|--------------------------|
----------------------------|--------------------------|
----------------------------|--------------------------|
----------------------------|--------------------------|


  E  E  E  E  E  E  E  E     W                 
--6--------6--5--------5--|--7----------------|
-----5--8--------5--8-----|-------------------|
--------------------------|-------------------|
--------------------------|-------------------|
--------------------------|-------------------|
--------------------------|-------------------|


  E   S  S  E   E   E   E   E   E      W                 
--L--14-15-14--12--11--------------|--------------------|
-----------------------13--12--10--|--12----------------|
-----------------------------------|--------------------|
-----------------------------------|--------------------|
-----------------------------------|--------------------|
-----------------------------------|--------------------|


   E   S  S  E   E   E   E   E   E      W                 
------14-15-17--15--14--12--11--12--|--14----------------|
---L--------------------------------|--------------------|
------------------------------------|--------------------|
------------------------------------|--------------------|
------------------------------------|--------------------|
------------------------------------|--------------------|


   E   S  S  E   E   E   E   E   E      E   E   E   E   E   E   E   E   
---L--17-19-20--19--17--------------|----------22----------20----------|
------------------------20--19--17--|------19----------17----------16--|
------------------------------------|--19----------17----------16------|
------------------------------------|----------------------------------|
------------------------------------|----------------------------------|
------------------------------------|----------------------------------|


   H         Q     Q        W                    Q     E   E   E   E   Q     
--19--------10----12----|--14----------------|---L-----L--15--14--12--10----|
------------------------|--------------------|------------------------------|
------------------------|--------------------|------------------------------|
------------------------|--------------------|------------------------------|
------------------------|--------------------|------------------------------|
------------------------|--------------------|------------------------------|


   Q     H.               H         Q     Q        W                 
--12----17------------|---L--------12----14----|--15----------------|
----------------------|------------------------|--------------------|
----------------------|------------------------|--------------------|
----------------------|------------------------|--------------------|
----------------------|------------------------|--------------------|
----------------------|------------------------|--------------------|


   Q     E   E   E   E   Q        W                   H        Q    Q     
---L-----L--17--15--14--12----|--14----------------|--L--------7----9----|
------------------------------|--------------------|---------------------|
------------------------------|--------------------|---------------------|
------------------------------|--------------------|---------------------|
------------------------------|--------------------|---------------------|
------------------------------|--------------------|---------------------|


   H.            Q       Q.      E  E  E  Q       H.           S S S S  
--10------------12----|--9------10--9--7--5----|--5------------7-5-5-3-|
----------------------|------------------------|-----------------------|
----------------------|------------------------|-----------------------|
----------------------|------------------------|-----------------------|
----------------------|------------------------|-----------------------|
----------------------|------------------------|-----------------------|


  Q    Q    Q    Q        H.            Q       Q.      E  E  E  Q     
--2----5----7----9----|--10------------12----|--9------10--9--7--5----|
----------------------|----------------------|------------------------|
----------------------|----------------------|------------------------|
----------------------|----------------------|------------------------|
----------------------|----------------------|------------------------|
----------------------|----------------------|------------------------|


               |--3--|                                                     
  H.           E  E  E     H          H            H         E  E  E   E   
--7------------9--7--5--|--7s--------19--------|--10---------L-----5--10--|
------------------------|----------------------|----------------6---------|
------------------------|----------------------|--------------------------|
------------------------|----------------------|--------------------------|
------------------------|----------------------|--------------------------|
------------------------|----------------------|--------------------------|


  E  E  E  E  E  E  E  E     E  E  E  E  E  E  E  E   
--9-----5--9--8-----5--8--|--7--------7--6--------6--|
-----6-----------6--------|--------7-----------7-----|
--------------------------|-----7-----------7--------|
--------------------------|--------------------------|
--------------------------|--------------------------|
--------------------------|--------------------------|


  E  E  E  E  E  E  E  E      H         E  E  E   E   
--5--------5--4--5--7--9--|--10---------L-----5--10--|
--------7-----------------|----------------6---------|
-----7--------------------|--------------------------|
--------------------------|--------------------------|
--------------------------|--------------------------|
--------------------------|--------------------------|


  E  E  E  E  E  E   E   E      E  E  E   E   E  E  E   E   
--9-----5--9--8--9--10--11--|--12-----7--12--11-----7--11--|
-----6----------------------|------8-------------8---------|
----------------------------|------------------------------|
----------------------------|------------------------------|
----------------------------|------------------------------|
----------------------------|------------------------------|


   E  E  E   E  E  E  E  E      E  E   E   E  E  E   E  E   
--10-----7--10--9-----7--9--|--10---------10--9---------9--|
------8------------8--------|------7--10---------7--10-----|
----------------------------|------------------------------|
----------------------------|------------------------------|
----------------------------|------------------------------|
----------------------------|------------------------------|


   E  E   E   E   E  E   E   E      E  E  E   E  E  E  E  E   
--12---------12--10---------10--|--10--------10--8--------8--|
------7--10----------7--10------|------5--8---------5--8-----|
--------------------------------|----------------------------|
--------------------------------|----------------------------|
--------------------------------|----------------------------|
--------------------------------|----------------------------|


  E  E  E  E  E  E  E  E     E  E  E  E  E  E  E  E   
--7--------7--8--------8--|--8--------8--6--------6--|
-----5--8--------5--8-----|-----3--6--------3--6-----|
--------------------------|--------------------------|
--------------------------|--------------------------|
--------------------------|--------------------------|
--------------------------|--------------------------|


  E  E  E  E  E  E  E   E      H         E  E  E   E   
--5--------------5--9--12--|--10---------L-----5--10--|
-----------5--8------------|----------------6---------|
-----2--6------------------|--------------------------|
---------------------------|--------------------------|
---------------------------|--------------------------|
---------------------------|--------------------------|


  E  E  E  E  E  E  E  E     E  E  E  E  E  E  E  E   
--9-----5--9--8-----5--8--|--7--------7--6--------6--|
-----6-----------6--------|--------7-----------7-----|
--------------------------|-----7-----------7--------|
--------------------------|--------------------------|
--------------------------|--------------------------|
--------------------------|--------------------------|


  E  E  E  E  E  E  E  E      H         E  E  E   E   
--5--------5--4--5--7--9--|--10---------L-----5--10--|
--------7-----------------|----------------6---------|
-----7--------------------|--------------------------|
--------------------------|--------------------------|
--------------------------|--------------------------|
--------------------------|--------------------------|


  E  E  E  E  E  E   E   E      E  E  E   E   E  E  E   E   
--9-----5--9--8--9--10--11--|--12-----7--12--11-----7--11--|
-----6----------------------|------8-------------8---------|
----------------------------|------------------------------|
----------------------------|------------------------------|
----------------------------|------------------------------|
----------------------------|------------------------------|


   E  E  E   E  E  E  E  E     E  E  E  E  E  E  E  E   
--10-----7--10--9-----7--9--|--8--------8--7--------7--|
------8------------8--------|-----5--8--------5--8-----|
----------------------------|--------------------------|
----------------------------|--------------------------|
----------------------------|--------------------------|
----------------------------|--------------------------|


  E  E  E  E  E  E  E  E     W                 
--6--------6--5--------5--|--7----------------|
-----5--8--------5--8-----|-------------------|
--------------------------|-------------------|
--------------------------|-------------------|
--------------------------|-------------------|
--------------------------|-------------------|


  E   S  S  E   E   E   E   E   E      W                 
--L--14-15-14--12--11--------------|--------------------|
-----------------------13--12--10--|--12----------------|
-----------------------------------|--------------------|
-----------------------------------|--------------------|
-----------------------------------|--------------------|
-----------------------------------|--------------------|


   E   S  S  E   E   E   E   E   E      W                 
------14-15-17--15--14--12--11--12--|--14----------------|
---L--------------------------------|--------------------|
------------------------------------|--------------------|
------------------------------------|--------------------|
------------------------------------|--------------------|
------------------------------------|--------------------|


   E   S  S  E   E   E   E   E   E      E   E   E   E   E   E   E   E   
---L--17-19-20--19--17--------------|----------22----------20----------|
------------------------20--19--17--|------19----------17----------16--|
------------------------------------|--19----------17----------16------|
------------------------------------|----------------------------------|
------------------------------------|----------------------------------|
------------------------------------|----------------------------------|


   H         Q     Q        W                    Q     E   E   E   E   Q     
--19--------10----12----|--14----------------|---L-----L--15--14--12--10----|
------------------------|--------------------|------------------------------|
------------------------|--------------------|------------------------------|
------------------------|--------------------|------------------------------|
------------------------|--------------------|------------------------------|
------------------------|--------------------|------------------------------|


   Q     H.               H         Q     Q        W                 
--12----17------------|---L--------12----14----|--15----------------|
----------------------|------------------------|--------------------|
----------------------|------------------------|--------------------|
----------------------|------------------------|--------------------|
----------------------|------------------------|--------------------|
----------------------|------------------------|--------------------|


   Q     E   E   E   E   Q        W                   H        Q    Q     
---L-----L--17--15--14--12----|--14----------------|--L--------7----9----|
------------------------------|--------------------|---------------------|
------------------------------|--------------------|---------------------|
------------------------------|--------------------|---------------------|
------------------------------|--------------------|---------------------|
------------------------------|--------------------|---------------------|


   H.            Q       Q.      E  E  E  Q       H.           S S S S  
--10------------12----|--9------10--9--7--5----|--5------------7-5-5-3-|
----------------------|------------------------|-----------------------|
----------------------|------------------------|-----------------------|
----------------------|------------------------|-----------------------|
----------------------|------------------------|-----------------------|
----------------------|------------------------|-----------------------|


  Q    Q    Q    Q        H.            Q       Q.      E  E  E  Q     
--2----5----7----9----|--10------------12----|--9------10--9--7--5----|
----------------------|----------------------|------------------------|
----------------------|----------------------|------------------------|
----------------------|----------------------|------------------------|
----------------------|----------------------|------------------------|
----------------------|----------------------|------------------------|


               |--3--|                                            
  H.           E  E  E     H.           Q       W                 
--7------------9--7--5--|--7-----------------|-------------------|
------------------------|--------------------|-------------------|
------------------------|--------------------|-------------------|
------------------------|--------------------|-------------------|
------------------------|--------------------|-------------------|
------------------------|--------------------|-------------------|


  W                   W                   W                   W                 
-------------------|-------------------|-------------------|-------------------|
-------------------|-------------------|-------------------|-------------------|
-------------------|-------------------|-------------------|-------------------|
-------------------|-------------------|-------------------|-------------------|
-------------------|-------------------|-------------------|-------------------|
-------------------|-------------------|-------------------|-------------------|


  W                   W                   W                 
-------------------|-------------------|-------------------|
-------------------|-------------------|-------------------|
-------------------|-------------------|-------------------|
-------------------|-------------------|-------------------|
-------------------|-------------------|-------------------|
-------------------|-------------------|-------------------|


  Q    E  E  E  E  E  E     E  E  E  E  H           Q    E  Q    E  E  E   
--7-------5-----------7--|--L-----5--------------|--7------------7--L--9--|
-------7--------7--------|-----7--------7--------|-------7--8-------------|
-------------------------|-----------------------|------------------------|
-------------------------|-----------------------|------------------------|
-------------------------|-----------------------|------------------------|
-------------------------|-----------------------|------------------------|


  H        Q    E  S S    Q    E  E  E  E  E  E     E  E  E  E  Q    E  S S  
--7--------6----L--4-6-|--7-------5-----------7--|--L-----5-----------------|
-----------------------|-------7--------7--------|-----7--------7----L--5-7-|
-----------------------|-------------------------|--------------------------|
-----------------------|-------------------------|--------------------------|
-----------------------|-------------------------|--------------------------|
-----------------------|-------------------------|--------------------------|


  Q    E  E  E   E   E  E     W                   Q    E  E  E  E  E  E   
---------------------------|-------------------|--7-------5-----------7--|
--8----7--5-----10---L--8--|--7----------------|-------7--------7--------|
---------------------------|-------------------|-------------------------|
---------------------------|-------------------|-------------------------|
---------------------------|-------------------|-------------------------|
---------------------------|-------------------|-------------------------|


  E  E  E  E  Q    Q       Q    E  E  E  E  E  E     E  E  Q     Q    Q     
--L-----5---------------|--7-------5-----------7--|--L-----5----10----9----|
-----7--------7----7----|-------7--------7--------|-----7------------------|
------------------------|-------------------------|------------------------|
------------------------|-------------------------|------------------------|
------------------------|-------------------------|------------------------|
------------------------|-------------------------|------------------------|


  Q    E  E  E  E  E  E     E  E  E  E  H           Q    E  E  E  E  E  E   
--7-------5-----------7--|--L-----5--------------|--7-------5-----------7--|
-------7--------7--------|-----7--------7--------|-------7--------7--------|
-------------------------|-----------------------|-------------------------|
-------------------------|-----------------------|-------------------------|
-------------------------|-----------------------|-------------------------|
-------------------------|-----------------------|-------------------------|


  E  E  Q     Q    Q         Q     E   E  E   E  E   E   
--L-----5----10----9s----|--19--------17------------19--|
-----7-------------------|--------19---------19---------|
-------------------------|------------------------------|
-------------------------|------------------------------|
-------------------------|------------------------------|
-------------------------|------------------------------|


   E   E   E  E   H            Q     E   E  E   E  E   E   
---L------17---------------|--19--------17------------19--|
------19---------19--------|--------19---------19---------|
---------------------------|------------------------------|
---------------------------|------------------------------|
---------------------------|------------------------------|
---------------------------|------------------------------|


   E   E   Q     Q     Q        Q     E   E  E   E  E   E   
---L------17----22----21----|--19--------17------------19--|
------19--------------------|--------19---------19---------|
----------------------------|------------------------------|
----------------------------|------------------------------|
----------------------------|------------------------------|
----------------------------|------------------------------|


   E   E   E  E   H            Q     E   E  E   E  E   E   
---L------17---------------|--19--------17------------19--|
------19---------19--------|--------19---------19---------|
---------------------------|------------------------------|
---------------------------|------------------------------|
---------------------------|------------------------------|
---------------------------|------------------------------|


   E   E   Q     Q     Q        W                    W                  
---L------17----22----21----|--19----------------|---L----------------||
------19--------------------|--------------------|--------------------||
----------------------------|--------------------|--------------------||
----------------------------|--------------------|--------------------||
----------------------------|--------------------|--------------------||
----------------------------|--------------------|--------------------||


Rhythm Guitar

     |--3--|                                      |--3--|                       
     E  E  E     W                   H.           E  E  E     W                 
E||-----------|-------------------|------------------------|-------------------|
B||-----------|-------------------|------------------------|-------------------|
G||-----------|-------------------|------------------------|-------------------|
D||-----------|-------------------|------------------------|-------------------|
A||--5--5--5--|--4----------------|--L------------5--5--5--|--4----------------|
E||--3--3--3--|--2----------------|--L------------3--3--3--|--2----------------|


               |--3--|                  |--3--|                  |--3--|   
  H.           E  E  E     H.           E  E  E     H.           E  E  E   
------------------------|------------------------|------------------------|
------------------------|------------------------|------------------------|
------------------------|---------------7--7--7--|--6------------7--7--7--|
------------------------|---------------5--5--5--|--4------------5--5--5--|
--L------------5--5--5--|--4---------------------|------------------------|
--L------------3--3--3--|--2---------------------|------------------------|


       |--3--|       |--3--|                          
  Q    E  E  E  Q    E  E  E     Q    Q    Q    Q     
------------------------------|----------------------|
------------------------------|----------------------|
--6----7--7--7--6----7--7--7--|--6-------------------|
--4----5--5--5--4----5--5--5--|--4----9----7----6----|
------------------------------|-------7----5----4----|
------------------------------|----------------------|


  E  E  E  E  E  E  E  E     E  E  E  E  E  E  E  E   
--------------------------|--------------------------|
--------------------------|--------------------------|
--------------------------|--------------------------|
--------------------------|--------------------------|
--x--9--x--9--x--9--x--9--|--x--9--x--9--x--9--x--9--|
--x--7--x--7--x--7--x--7--|--x--7--x--7--x--7--x--7--|


  E  E  E  E  E  E  E  E     E  E  E  E  E  E  E  E   
--------------------------|--------------------------|
--------------------------|--------------------------|
--------------------------|--------------------------|
--------------------------|--------------------------|
--x--5--x--5--x--5--x--5--|--x--7--x--7--x--7--x--7--|
--x--3--x--3--x--3--x--3--|--x--5--x--5--x--5--x--5--|


  E  E  E  E  E  E  E  E     E  E  E  E  E  E  E  E   
--------------------------|--------------------------|
--------------------------|--------------------------|
--------------------------|--------------------------|
--------------------------|--------------------------|
--x--9--x--9--x--9--x--9--|--x--9--x--9--x--9--x--9--|
--x--7--x--7--x--7--x--7--|--x--7--x--7--x--7--x--7--|


  E  E  E  E  E  E  E  E     E  E  E  E  E  E  E  E     E  E  E  Q    E  E  E   
--------------------------|--------------------------|-------------------------|
--------------------------|--------------------------|-------------------------|
--------------------------|--------------------------|-------------------------|
--------------------------|--------------------------|-------------------------|
--x--5--x--5--x--5--x--5--|--x--7--x--7--x--7--x--7--|--9--9--x--9----9--x--9--|
--x--3--x--3--x--3--x--3--|--x--5--x--5--x--5--x--5--|--7--7--x--7----7--x--7--|


  E  Q    E  Q    Q       E  E  E  Q    E  E  E     E  E  E  E   Q     Q     
-----------------------|-------------------------|--------------------------|
-----------------------|-------------------------|--------------------------|
-----------------------|-------------------------|--------------------------|
-----------------------|-------------------------|--------------------------|
--L--9----x--9----7----|--5--5--x--5----5--x--7--|--L--7--x--7--12----11----|
--L--7----x--7----5----|--3--3--x--3----3--x--5--|--L--5--x--5--10-----9----|


  E  E  E  Q    E  E  E     E  Q    E  Q    Q       E  E  E  Q    E  E  E   
-------------------------|-----------------------|-------------------------|
-------------------------|-----------------------|-------------------------|
-------------------------|-----------------------|-------------------------|
-------------------------|-----------------------|-------------------------|
--9--9--x--9----9--x--9--|--L--9----x--9----7----|--5--5--x--5----5--x--7--|
--7--7--x--7----7--x--7--|--L--7----x--7----5----|--3--3--x--3----3--x--5--|


                             PM PM    PM PM    PM PM  
  E  E  E  E   Q     Q       E  E  E  E  E  E  E  E   
--------------------------|--------------------------|
--------------------------|--------------------------|
--------------------------|--------------------------|
--------------------------|--------7--------7--------|
--L--7--x--7--12----11----|--5--5--5--5--5--5--5--5--|
--L--5--x--5--10-----9----|--------------------------|


     PM PM    PM PM          PM PM    PM PM    PM PM  
  E  E  E  E  E  E  Q        E  E  E  E  E  E  E  E   
--------------------------|--------------------------|
--------------------------|--------------------------|
--------------------------|--------------------------|
--7--------7--------7-----|--------4--------4--------|
--5--5--5--5--5--5--5s----|--2--2--2--2--2--2--2--2--|
--------------------------|--------------------------|


     PM PM    PM PM          PM PM    PM PM    PM PM  
  E  E  E  E  E  E  E  E     E  E  E  E  E  E  E  E   
--------------------------|--------------------------|
--------------------------|--------------------------|
--------------------------|--------------------------|
--4--------4--------4--6--|--------7--------7--------|
--2--2--2--2--2--2--2--4--|--5--5--5--5--5--5--5--5--|
--------------------------|--------------------------|


     PM PM    PM PM          PM PM    PM PM    PM PM       PM PM    PM PM       
  E  E  E  E  E  E  E  E     E  E  E  E  E  E  E  E     E  E  E  E  E  E  Q     
--------------------------|--------------------------|-------------------------|
--------------------------|--------------------------|-------------------------|
--------------------------|--------------------------|-------------------------|
--7--------7--------7--8--|--------9--------9--------|--9--------9--------9----|
--5--5--5--5--5--5--5--6--|--7--7--7--7--7--7--7--7--|--7--7--7--7--7--7--7----|
--------------------------|--------------------------|-------------------------|


  PM PM    PM PM    PM PM       PM PM    PM PM         PM PM    PM PM    PM PM  
  E  E  E  E  E  E  E  E     E  E  E  E  E  E  Q       E  E  E  E  E  E  E  E   
--------------------------|-------------------------|--------------------------|
--------------------------|-------------------------|--------------------------|
--------------------------|-------------------------|--------------------------|
--------7--------7--------|--7--------7--------7----|--------5--------5--------|
--5--5--5--5--5--5--5--5--|--5--5--5--5--5--5--5----|--3--3--3--3--3--3--3--3--|
--------------------------|-------------------------|--------------------------|


     PM PM    PM PM         PM PM    PM PM    PM       PM PM    PM PM    PM     
  E  E  E  E  E  E  Q       E  E  E  E  E  E  E  E     E  E  E  E  E  E  E  E   
-------------------------|--------------------------|--------------------------|
-------------------------|--------------------------|--------------------------|
-------------------------|--------------------------|--------------------------|
--5--------5--------5----|--------------------------|--------------------------|
--3--3--3--3--3--3--3----|--------8--------8-----8--|--------7--------7-----7--|
-------------------------|--6--6--6--6--6--6--6--6--|--5--5--5--5--5--5--5--5--|


  PM PM    PM PM    PM PM       PM PM    PM PM        
  E  E  E  E  E  E  E  E     E  E  E  E  E  E  Q      
--------------------------|--------------------------|
--------------------------|--------------------------|
--------------------------|--------------------------|
--------7--------7--------|--7--------7--------7-----|
--5--5--5--5--5--5--5--5--|--5--5--5--5--5--5--5s----|
--------------------------|--------------------------|


  PM PM    PM PM    PM PM       PM PM    PM PM        
  E  E  E  E  E  E  E  E     E  E  E  E  E  E  E  E   
--------------------------|--------------------------|
--------------------------|--------------------------|
--------------------------|--------------------------|
--------4--------4--------|--4--------4--------4--6--|
--2--2--2--2--2--2--2--2--|--2--2--2--2--2--2--2--4--|
--------------------------|--------------------------|


  PM PM    PM PM    PM PM       PM PM    PM PM        
  E  E  E  E  E  E  E  E     E  E  E  E  E  E  E  E   
--------------------------|--------------------------|
--------------------------|--------------------------|
--------------------------|--------------------------|
--------7--------7--------|--7--------7--------7--8--|
--5--5--5--5--5--5--5--5--|--5--5--5--5--5--5--5--6--|
--------------------------|--------------------------|


  PM PM    PM PM    PM PM       PM PM    PM PM         PM PM    PM PM    PM PM  
  E  E  E  E  E  E  E  E     E  E  E  E  E  E  Q       E  E  E  E  E  E  E  E   
--------------------------|-------------------------|--------------------------|
--------------------------|-------------------------|--------------------------|
--------------------------|-------------------------|--------------------------|
--------9--------9--------|--9--------9--------9----|--------7--------7--------|
--7--7--7--7--7--7--7--7--|--7--7--7--7--7--7--7----|--5--5--5--5--5--5--5--5--|
--------------------------|-------------------------|--------------------------|


     PM PM    PM PM         PM PM    PM PM    PM PM       PM PM    PM PM       
  E  E  E  E  E  E  Q       E  E  E  E  E  E  E  E     E  E  E  E  E  E  Q     
-------------------------|--------------------------|-------------------------|
-------------------------|--------------------------|-------------------------|
-------------------------|--------------------------|-------------------------|
--7--------7--------7----|--------5--------5--------|--5--------5--------5----|
--5--5--5--5--5--5--5----|--3--3--3--3--3--3--3--3--|--3--3--3--3--3--3--3----|
-------------------------|--------------------------|-------------------------|


  PM PM PM PM PM PM PM PM    PM PM PM PM PM PM PM PM  
  E  E  E  E  E  E  E  E     E  E  E  E  E  E  E  E   
--------------------------|--------------------------|
--------------------------|--------------------------|
--------------------------|--------------------------|
-----4-----4-----4-----4--|-----5-----5-----5-----5--|
--2-----2-----2-----2-----|--3-----3-----3-----3-----|
--------------------------|--------------------------|


  PM PM PM PM PM PM PM PM    PM PM PM PM PM PM PM PM  
  E  E  E  E  E  E  E  E     E  E  E  E  E  E  E  E   
--------------------------|--------------------------|
--------------------------|--------------------------|
--------------------------|--------------------------|
-----4-----4-----4-----4--|-----5-----5-----5-----5--|
--2-----2-----2-----2-----|--3-----3-----3-----3-----|
--------------------------|--------------------------|


  PM PM PM PM PM PM PM PM    PM PM PM PM PM PM PM PM  
  E  E  E  E  E  E  E  E     E  E  E  E  E  E  E  E   
--------------------------|--------------------------|
--------------------------|--------------------------|
--------------------------|--------------------------|
-----4-----4-----4-----4--|-----5-----5-----5-----5--|
--2-----2-----2-----2-----|--3-----3-----3-----3-----|
--------------------------|--------------------------|


  E  E  E  E  E  E  E  E     E  E  E  E  E  E  E  E   
--------------------------|--------------------------|
--------------------------|--------------------------|
--------------------------|--------------------------|
--7--7-----5--5-----4--4--|-----4--4-----4--4--4--4--|
--5--5-----3--3-----2--2--|-----2--2-----2--2--2--2--|
--------------------------|--------------------------|


  PM PM    PM PM    PM PM       PM PM    PM PM        
  E  E  E  E  E  E  E  E     E  E  E  E  E  E  Q      
--------------------------|--------------------------|
--------------------------|--------------------------|
--------------------------|--------------------------|
--------7--------7--------|--7--------7--------7-----|
--5--5--5--5--5--5--5--5--|--5--5--5--5--5--5--5s----|
--------------------------|--------------------------|


  PM PM    PM PM    PM PM       PM PM    PM PM        
  E  E  E  E  E  E  E  E     E  E  E  E  E  E  E  E   
--------------------------|--------------------------|
--------------------------|--------------------------|
--------------------------|--------------------------|
--------4--------4--------|--4--------4--------4--6--|
--2--2--2--2--2--2--2--2--|--2--2--2--2--2--2--2--4--|
--------------------------|--------------------------|


  PM PM    PM PM    PM PM       PM PM    PM PM        
  E  E  E  E  E  E  E  E     E  E  E  E  E  E  E  E   
--------------------------|--------------------------|
--------------------------|--------------------------|
--------------------------|--------------------------|
--------7--------7--------|--7--------7--------7--8--|
--5--5--5--5--5--5--5--5--|--5--5--5--5--5--5--5--6--|
--------------------------|--------------------------|


  PM PM    PM PM    PM PM       PM PM    PM PM         PM PM    PM PM    PM PM  
  E  E  E  E  E  E  E  E     E  E  E  E  E  E  Q       E  E  E  E  E  E  E  E   
--------------------------|-------------------------|--------------------------|
--------------------------|-------------------------|--------------------------|
--------------------------|-------------------------|--------------------------|
--------9--------9--------|--9--------9--------9----|--------7--------7--------|
--7--7--7--7--7--7--7--7--|--7--7--7--7--7--7--7----|--5--5--5--5--5--5--5--5--|
--------------------------|-------------------------|--------------------------|


     PM PM    PM PM         PM PM    PM PM    PM PM       PM PM    PM PM       
  E  E  E  E  E  E  Q       E  E  E  E  E  E  E  E     E  E  E  E  E  E  Q     
-------------------------|--------------------------|-------------------------|
-------------------------|--------------------------|-------------------------|
-------------------------|--------------------------|-------------------------|
--7--------7--------7----|--------5--------5--------|--5--------5--------5----|
--5--5--5--5--5--5--5----|--3--3--3--3--3--3--3--3--|--3--3--3--3--3--3--3----|
-------------------------|--------------------------|-------------------------|


  PM PM    PM PM    PM       PM PM    PM PM    PM     
  E  E  E  E  E  E  E  E     E  E  E  E  E  E  E  E   
--------------------------|--------------------------|
--------------------------|--------------------------|
--------------------------|--------------------------|
--------------------------|--------------------------|
--------8--------8-----8--|--------7--------7-----7--|
--6--6--6--6--6--6--6--6--|--5--5--5--5--5--5--5--5--|


  PM PM    PM PM    PM PM       PM PM    PM PM        
  E  E  E  E  E  E  E  E     E  E  E  E  E  E  Q      
--------------------------|--------------------------|
--------------------------|--------------------------|
--------------------------|--------------------------|
--------7--------7--------|--7--------7--------7-----|
--5--5--5--5--5--5--5--5--|--5--5--5--5--5--5--5s----|
--------------------------|--------------------------|


  PM PM    PM PM    PM PM       PM PM    PM PM        
  E  E  E  E  E  E  E  E     E  E  E  E  E  E  E  E   
--------------------------|--------------------------|
--------------------------|--------------------------|
--------------------------|--------------------------|
--------4--------4--------|--4--------4--------4--6--|
--2--2--2--2--2--2--2--2--|--2--2--2--2--2--2--2--4--|
--------------------------|--------------------------|


  PM PM    PM PM    PM PM       PM PM    PM PM        
  E  E  E  E  E  E  E  E     E  E  E  E  E  E  E  E   
--------------------------|--------------------------|
--------------------------|--------------------------|
--------------------------|--------------------------|
--------7--------7--------|--7--------7--------7--8--|
--5--5--5--5--5--5--5--5--|--5--5--5--5--5--5--5--6--|
--------------------------|--------------------------|


  PM PM    PM PM    PM PM       PM PM    PM PM         PM PM    PM PM    PM PM  
  E  E  E  E  E  E  E  E     E  E  E  E  E  E  Q       E  E  E  E  E  E  E  E   
--------------------------|-------------------------|--------------------------|
--------------------------|-------------------------|--------------------------|
--------------------------|-------------------------|--------------------------|
--------9--------9--------|--9--------9--------9----|--------5--------5--------|
--7--7--7--7--7--7--7--7--|--7--7--7--7--7--7--7----|--3--3--3--3--3--3--3--3--|
--------------------------|-------------------------|--------------------------|


     PM PM    PM PM         PM PM PM PM PM PM PM PM    PM PM PM PM PM PM PM PM  
  E  E  E  E  E  E  Q       E  E  E  E  E  E  E  E     E  E  E  E  E  E  E  E   
-------------------------|--------------------------|--------------------------|
-------------------------|--------------------------|--------------------------|
-------------------------|--------------------------|--------------------------|
--5--------5--------5----|-----4-----4-----4-----4--|-----5-----5-----5-----5--|
--3--3--3--3--3--3--3----|--2-----2-----2-----2-----|--3-----3-----3-----3-----|
-------------------------|--------------------------|--------------------------|


  PM PM PM PM PM PM PM PM    PM PM PM PM PM PM PM PM  
  E  E  E  E  E  E  E  E     E  E  E  E  E  E  E  E   
--------------------------|--------------------------|
--------------------------|--------------------------|
--------------------------|--------------------------|
-----4-----4-----4-----4--|-----5-----5-----5-----5--|
--2-----2-----2-----2-----|--3-----3-----3-----3-----|
--------------------------|--------------------------|


  PM PM PM PM PM PM PM PM    PM PM PM PM PM PM PM PM  
  E  E  E  E  E  E  E  E     E  E  E  E  E  E  E  E   
--------------------------|--------------------------|
--------------------------|--------------------------|
--------------------------|--------------------------|
-----4-----4-----4-----4--|-----5-----5-----5-----5--|
--2-----2-----2-----2-----|--3-----3-----3-----3-----|
--------------------------|--------------------------|


  E  E  E  E  E  E  E  E     E  E  E  E  Q    Q       E  E  E  E  E  E  E  E   
--------------------------|------------------------|--------------------------|
--------------------------|------------------------|--------------------------|
--------------------------|------------------------|--------------------------|
--7--7-----5--5-----4--4--|-----4--4-----2----6----|--7--7--x--7--7--7--x--7--|
--5--5-----3--3-----2--2--|-----2--2-----0----4----|--5--5--x--5--5--5--x--5--|
--------------------------|------------------------|--------------------------|


  E  E  E  E  E  E  E  E     E  E  E  E  E  E  E  E     E  E  E  E  Q    Q     
--------------------------|--------------------------|------------------------|
--------------------------|--------------------------|------------------------|
--------------------------|--------------------------|------------------------|
--7--7--x--7--7--7--7--7--|--------------------------|--------------6----7----|
--5--5--x--5--5--5--5--5--|--7--7--x--7--7--7--x--7--|--7--7--x--x--4----5----|
--------------------------|--5--5--x--5--5--5--x--5--|--5--5--x--x------------|


  E  E  E  E  E  E  E  E     E  E  E  E  E  E  E  E   
--------------------------|--------------------------|
--------------------------|--------------------------|
--------------------------|--------------------------|
--9--9--x--9--9--9--x--9--|--9--9--x--9--9--9--9--9--|
--7--7--x--7--7--7--x--7--|--7--7--x--7--7--7--7--7--|
--------------------------|--------------------------|


  E  E  E  E  E  E  E  E     E  E  E  E  Q    Q       E  E  E  E  E  E  E  E   
--------------------------|------------------------|--------------------------|
--------------------------|------------------------|--------------------------|
--------------------------|------------------------|--------------------------|
--------------------------|------------------------|--------------------------|
--9--9--x--9--9--9--x--9--|--9--9--x--x--9----7----|--5--5--5--5--5--5--5--5--|
--7--7--x--7--7--7--x--7--|--7--7--x--x--7----5----|--3--3--3--3--3--3--3--3--|


  E  E  E  E  E  E  E  E     E  E  E  E  E  E  E  E   
--------------------------|--------------------------|
--------------------------|--------------------------|
--------------------------|--------------------------|
--------------------------|--7--7--7--7--6--6--6--6--|
--7--7--7--7--7--7--7--7--|--5--5--5--5--4--4--4--4--|
--5--5--5--5--5--5--5--5--|--------------------------|


  E  E  E  E  E  E  E  E     E  E  E  E  E  E  E  E   
--------------------------|--------------------------|
--------------------------|--------------------------|
--------------------------|--------------------------|
--------------------------|--------------------------|
--9--9--9--9--7--7--7--7--|--5--5--5--5--5--5--5--5--|
--7--7--7--7--5--5--5--5--|--3--3--3--3--3--3--3--3--|


  E  E  E  E  E  E  E  E     E  E  E  E  E  E  E  E   
--------------------------|--------------------------|
--------------------------|--------------------------|
--------------------------|--------------------------|
--------------------------|--------------------------|
--7--7--7--7--7--7--7--7--|--9--9--9--9--9--9--9--9--|
--5--5--5--5--5--5--5--5--|--7--7--7--7--7--7--7--7--|


                             PM PM    PM PM    PM PM  
  E  E  E  E  E  E  E  E     E  E  E  E  E  E  E  E   
--------------------------|--------------------------|
--------------------------|--------------------------|
--------------------------|--------------------------|
--------------------------|--------7--------7--------|
--9--9--9--9--9--9--------|--5--5--5--5--5--5--5--5--|
--7--7--7--7--7--7--------|--------------------------|


     PM PM    PM PM          PM PM    PM PM    PM PM  
  E  E  E  E  E  E  Q        E  E  E  E  E  E  E  E   
--------------------------|--------------------------|
--------------------------|--------------------------|
--------------------------|--------------------------|
--7--------7--------7-----|--------4--------4--------|
--5--5--5--5--5--5--5s----|--2--2--2--2--2--2--2--2--|
--------------------------|--------------------------|


     PM PM    PM PM          PM PM    PM PM    PM PM  
  E  E  E  E  E  E  E  E     E  E  E  E  E  E  E  E   
--------------------------|--------------------------|
--------------------------|--------------------------|
--------------------------|--------------------------|
--4--------4--------4--6--|--------7--------7--------|
--2--2--2--2--2--2--2--4--|--5--5--5--5--5--5--5--5--|
--------------------------|--------------------------|


     PM PM    PM PM          PM PM    PM PM    PM PM       PM PM    PM PM       
  E  E  E  E  E  E  E  E     E  E  E  E  E  E  E  E     E  E  E  E  E  E  Q     
--------------------------|--------------------------|-------------------------|
--------------------------|--------------------------|-------------------------|
--------------------------|--------------------------|-------------------------|
--7--------7--------7--8--|--------9--------9--------|--9--------9--------9----|
--5--5--5--5--5--5--5--6--|--7--7--7--7--7--7--7--7--|--7--7--7--7--7--7--7----|
--------------------------|--------------------------|-------------------------|


  PM PM    PM PM    PM PM       PM PM    PM PM         PM PM    PM PM    PM PM  
  E  E  E  E  E  E  E  E     E  E  E  E  E  E  Q       E  E  E  E  E  E  E  E   
--------------------------|-------------------------|--------------------------|
--------------------------|-------------------------|--------------------------|
--------------------------|-------------------------|--------------------------|
--------7--------7--------|--7--------7--------7----|--------5--------5--------|
--5--5--5--5--5--5--5--5--|--5--5--5--5--5--5--5----|--3--3--3--3--3--3--3--3--|
--------------------------|-------------------------|--------------------------|


     PM PM    PM PM         PM PM    PM PM    PM       PM PM    PM PM    PM     
  E  E  E  E  E  E  Q       E  E  E  E  E  E  E  E     E  E  E  E  E  E  E  E   
-------------------------|--------------------------|--------------------------|
-------------------------|--------------------------|--------------------------|
-------------------------|--------------------------|--------------------------|
--5--------5--------5----|--------------------------|--------------------------|
--3--3--3--3--3--3--3----|--------8--------8-----8--|--------7--------7-----7--|
-------------------------|--6--6--6--6--6--6--6--6--|--5--5--5--5--5--5--5--5--|


  PM PM    PM PM    PM PM       PM PM    PM PM        
  E  E  E  E  E  E  E  E     E  E  E  E  E  E  Q      
--------------------------|--------------------------|
--------------------------|--------------------------|
--------------------------|--------------------------|
--------7--------7--------|--7--------7--------7-----|
--5--5--5--5--5--5--5--5--|--5--5--5--5--5--5--5s----|
--------------------------|--------------------------|


  PM PM    PM PM    PM PM       PM PM    PM PM        
  E  E  E  E  E  E  E  E     E  E  E  E  E  E  E  E   
--------------------------|--------------------------|
--------------------------|--------------------------|
--------------------------|--------------------------|
--------4--------4--------|--4--------4--------4--6--|
--2--2--2--2--2--2--2--2--|--2--2--2--2--2--2--2--4--|
--------------------------|--------------------------|


  PM PM    PM PM    PM PM       PM PM    PM PM        
  E  E  E  E  E  E  E  E     E  E  E  E  E  E  E  E   
--------------------------|--------------------------|
--------------------------|--------------------------|
--------------------------|--------------------------|
--------7--------7--------|--7--------7--------7--8--|
--5--5--5--5--5--5--5--5--|--5--5--5--5--5--5--5--6--|
--------------------------|--------------------------|


  PM PM    PM PM    PM PM       PM PM    PM PM         PM PM    PM PM    PM PM  
  E  E  E  E  E  E  E  E     E  E  E  E  E  E  Q       E  E  E  E  E  E  E  E   
--------------------------|-------------------------|--------------------------|
--------------------------|-------------------------|--------------------------|
--------------------------|-------------------------|--------------------------|
--------9--------9--------|--9--------9--------9----|--------5--------5--------|
--7--7--7--7--7--7--7--7--|--7--7--7--7--7--7--7----|--3--3--3--3--3--3--3--3--|
--------------------------|-------------------------|--------------------------|


     PM PM    PM PM         PM PM PM PM PM PM PM PM    PM PM PM PM PM PM PM PM  
  E  E  E  E  E  E  Q       E  E  E  E  E  E  E  E     E  E  E  E  E  E  E  E   
-------------------------|--------------------------|--------------------------|
-------------------------|--------------------------|--------------------------|
-------------------------|--------------------------|--------------------------|
--5--------5--------5----|-----4-----4-----4-----4--|-----5-----5-----5-----5--|
--3--3--3--3--3--3--3----|--2-----2-----2-----2-----|--3-----3-----3-----3-----|
-------------------------|--------------------------|--------------------------|


  PM PM PM PM PM PM PM PM    PM PM PM PM PM PM PM PM  
  E  E  E  E  E  E  E  E     E  E  E  E  E  E  E  E   
--------------------------|--------------------------|
--------------------------|--------------------------|
--------------------------|--------------------------|
-----4-----4-----4-----4--|-----5-----5-----5-----5--|
--2-----2-----2-----2-----|--3-----3-----3-----3-----|
--------------------------|--------------------------|


  PM PM PM PM PM PM PM PM    PM PM PM PM PM PM PM PM  
  E  E  E  E  E  E  E  E     E  E  E  E  E  E  E  E   
--------------------------|--------------------------|
--------------------------|--------------------------|
--------------------------|--------------------------|
-----4-----4-----4-----4--|-----5-----5-----5-----5--|
--2-----2-----2-----2-----|--3-----3-----3-----3-----|
--------------------------|--------------------------|


  E  E  E  E  E  E  E  E     E  E  E  E  Q    Q       E  E  E  E  E  E  E  E   
--------------------------|------------------------|--------------------------|
--------------------------|------------------------|--------------------------|
--------------------------|------------------------|--------------------------|
--7--7-----5--5-----4--4--|-----4--4-----2----6----|--7--7--x--7--7--7--x--7--|
--5--5-----3--3-----2--2--|-----2--2-----0----4----|--5--5--x--5--5--5--x--5--|
--------------------------|------------------------|--------------------------|


  E  E  E  E  E  E  E  E     E  E  E  E  E  E  E  E     E  E  E  E  Q    Q     
--------------------------|--------------------------|------------------------|
--------------------------|--------------------------|------------------------|
--------------------------|--------------------------|------------------------|
--7--7--x--7--7--7--7--7--|--------------------------|--------------6----7----|
--5--5--x--5--5--5--5--5--|--7--7--x--7--7--7--x--7--|--7--7--x--x--4----5----|
--------------------------|--5--5--x--5--5--5--x--5--|--5--5--x--x------------|


  E  E  E  E  E  E  E  E     E  E  E  E  E  E  E  E   
--------------------------|--------------------------|
--------------------------|--------------------------|
--------------------------|--------------------------|
--9--9--x--9--9--9--x--9--|--9--9--x--9--9--9--9--9--|
--7--7--x--7--7--7--x--7--|--7--7--x--7--7--7--7--7--|
--------------------------|--------------------------|


  E  E  E  E  E  E  E  E     E  E  E  E  Q    Q       E  E  E  E  E  E  E  E   
--------------------------|------------------------|--------------------------|
--------------------------|------------------------|--------------------------|
--------------------------|------------------------|--------------------------|
--------------------------|------------------------|--------------------------|
--9--9--x--9--9--9--x--9--|--9--9--x--x--9----7----|--5--5--5--5--5--5--5--5--|
--7--7--x--7--7--7--x--7--|--7--7--x--x--7----5----|--3--3--3--3--3--3--3--3--|


  E  E  E  E  E  E  E  E     E  E  E  E  E  E  E  E   
--------------------------|--------------------------|
--------------------------|--------------------------|
--------------------------|--------------------------|
--------------------------|--7--7--7--7--6--6--6--6--|
--7--7--7--7--7--7--7--7--|--5--5--5--5--4--4--4--4--|
--5--5--5--5--5--5--5--5--|--------------------------|


  E  E  E  E  E  E  E  E     E  E  E  E  E  E  E  E   
--------------------------|--------------------------|
--------------------------|--------------------------|
--------------------------|--------------------------|
--------------------------|--------------------------|
--9--9--9--9--7--7--7--7--|--5--5--5--5--5--5--5--5--|
--7--7--7--7--5--5--5--5--|--3--3--3--3--3--3--3--3--|


  E  E  E  E  E  E  E  E     E  E  E  E  E  E  E  E   
--------------------------|--------------------------|
--------------------------|--------------------------|
--------------------------|--------------------------|
--------------------------|--------------------------|
--7--7--7--7--7--7--7--7--|--9--9--9--9--9--9--7--7--|
--5--5--5--5--5--5--5--5--|--7--7--7--7--7--7--5--5--|


  E  E  E  E  E  E  Q        E  H        E  Q       W                 
--------------------------|----------------------|-------------------|
--------------------------|----------------------|-------------------|
--------------------------|----------------------|-------------------|
--------------------------|----------------------|-------------------|
--9--9--9--9--9--9--9s----|--0-------------------|-------------------|
--7--7--7--7--7--7--7s----|--0-------------------|-------------------|


  W                   W                   W                   W                 
-------------------|-------------------|-------------------|-------------------|
-------------------|-------------------|-------------------|-------------------|
-------------------|-------------------|-------------------|-------------------|
-------------------|-------------------|-------------------|-------------------|
-------------------|-------------------|-------------------|-------------------|
-------------------|-------------------|-------------------|-------------------|


                                          PM PM PM PM PM PM PM PM  
  W                   W                   E  E  E  E  E  E  E  E   
-------------------|-------------------|--------------------------|
-------------------|-------------------|--------------------------|
-------------------|-------------------|--------------------------|
-------------------|-------------------|--------------9--9--9--9--|
-------------------|-------------------|--9--9--9--9--7--7--7--7--|
-------------------|-------------------|--7--7--7--7--------------|


  PM PM PM PM PM PM PM PM    PM PM PM PM PM PM PM PM    PM PM PM PM             
  E  E  E  E  E  E  E  E     E  E  E  E  E  E  E  E     E  E  E  E  E  E  Q     
--------------------------|--------------------------|-------------------------|
--------------------------|--------------------------|-------------------------|
--------------------------|--------------------------|-------------------------|
--------------7--7--7--7--|--------------6--6--6--6--|-------------------------|
--7--7--7--7--5--5--5--5--|--5--5--5--5--4--4--4--4--|--4--4--4--4--4--6--8----|
--5--5--5--5--------------|--3--3--3--3--------------|--2--2--2--2--2--4--6----|


  PM PM PM PM PM PM PM PM    PM PM PM PM PM PM PM PM  
  E  E  E  E  E  E  E  E     E  E  E  E  E  E  E  E   
--------------------------|--------------------------|
--------------------------|--------------------------|
--------------------------|--------------------------|
--------------9--9--9--9--|--------------7--7--7--7--|
--9--9--9--9--7--7--7--7--|--5--7--7--7--5--5--5--5--|
--7--7--7--7--------------|--5--5--5--5--------------|


  PM PM PM PM PM PM PM PM                                                       
  E  E  E  E  E  E  E  E     E  E  E  E  E  E  Q       E  E  E  E  E  E  E  E   
--------------------------|-------------------------|--------------------------|
--------------------------|-------------------------|--------------------------|
--------------------------|-------------------------|--------------------------|
--------------------------|-------------------------|--------------------------|
--5--5--5--5--4--4--4--4--|--9--9--9--9--9--9-------|--x--9--x--9--x--9--x--9--|
--3--3--3--3--2--2--2--2--|--7--7--7--7--7--7-------|--x--7--x--7--x--7--x--7--|


  E  E  E  E  E  E  E  E     E  E  E  E  E  E  E  E   
--------------------------|--------------------------|
--------------------------|--------------------------|
--------------------------|--------------------------|
--------------------------|--------------------------|
--x--9--x--9--x--9--x--9--|--x--5--x--5--x--5--x--5--|
--x--7--x--7--x--7--x--7--|--x--3--x--3--x--3--x--3--|


  E  E  E  E  E  E  E  E     E  E  E  E  E  E  E  E   
--------------------------|--------------------------|
--------------------------|--------------------------|
--------------------------|--------------------------|
--------------------------|--------------------------|
--x--7--x--7--x--7--x--7--|--x--9--x--9--x--9--x--9--|
--x--5--x--5--x--5--x--5--|--x--7--x--7--x--7--x--7--|


  E  E  E  E  E  E  E  E     E  E  E  E  E  E  E  E   
--------------------------|--------------------------|
--------------------------|--------------------------|
--------------------------|--------------------------|
--------------------------|--------------------------|
--x--9--x--9--x--9--x--9--|--x--5--x--5--x--5--x--5--|
--x--7--x--7--x--7--x--7--|--x--3--x--3--x--3--x--3--|


  E  E  E  E  E  E  E  E     E  E  E  Q    E  E  E     E  E  E  E  Q    Q     
--------------------------|-------------------------|------------------------|
--------------------------|-------------------------|------------------------|
--------------------------|-------------------------|------------------------|
--------------------------|-------------------------|------------------------|
--x--7--x--7--x--7--x--7--|--9--9--x--9----9--x--9--|--L--9--x--x--9----7----|
--x--5--x--5--x--5--x--5--|--7--7--x--7----7--x--7--|--L--7--x--x--7----5----|


  E  E  E  Q    E  E  E     E  E  E  E   Q     Q       E  E  E  Q    E  E  E   
-------------------------|--------------------------|-------------------------|
-------------------------|--------------------------|-------------------------|
-------------------------|--------------------------|-------------------------|
-------------------------|--------------------------|-------------------------|
--5--5--x--5----5--x--7--|--L--7--x--7--12----11----|--9--9--x--9----9--x--9--|
--3--3--x--3----3--x--5--|--L--5--x--5--10-----9----|--7--7--x--7----7--x--7--|


  E  E  E  E  Q    Q       E  E  E  Q    E  E  E     E  E  E  E   Q     Q     
------------------------|-------------------------|--------------------------|
------------------------|-------------------------|--------------------------|
------------------------|-------------------------|--------------------------|
------------------------|-------------------------|--------------------------|
--L--9--x--x--9----7----|--5--5--x--5----5--x--7--|--L--7--x--7--12----11----|
--L--7--x--x--7----5----|--3--3--x--3----3--x--5--|--L--5--x--5--10-----9----|


  W                   W                  
-------------------|-------------------||
-------------------|-------------------||
-------------------|-------------------||
-------------------|-------------------||
--9----------------|--L----------------||
--7----------------|--L----------------||


Bass

     |--3--|                                      |--3--|                       
     E  E  E     W                   H.           E  E  E     W                 
G||-----------|-------------------|------------------------|-------------------|
D||-----------|-------------------|------------------------|-------------------|
A||-----------|-------------------|------------------------|-------------------|
E||--3--3--3--|--2----------------|--L------------3--3--3--|--2----------------|
B||-----------|-------------------|------------------------|-------------------|


               |--3--|                  |--3--|                  |--3--|   
  H.           E  E  E     H.           E  E  E     H.           E  E  E   
------------------------|------------------------|------------------------|
------------------------|------------------------|------------------------|
------------------------|------------------------|------------------------|
--L------------3--3--3--|--2------------3--3--3--|--2------------3--3--3--|
------------------------|------------------------|------------------------|


       |--3--|       |--3--|                          
  Q    E  E  E  Q    E  E  E     Q    Q    Q    Q     
------------------------------|----------------------|
------------------------------|----------------------|
------------------------------|----------------------|
--2----3--3--3--2----3--3--3--|--2----0--------------|
------------------------------|------------3----2----|


  E  E  E  E  E  E  E  E     E  E  E  E  E  E  E  E   
--------------------------|--------------------------|
--------------------------|--------------------------|
--------------2--2--------|--------------2--2--------|
--------2--2--------2--2--|--------2--2--------2--2--|
--0--0--------------------|--0--0--------------------|


  E  E  E  E  E  E  E  E     E  E  E  E  E  E  E  E   
--------------------------|--------------------------|
--------------5--5--------|--------------7--7--------|
--------5--5--------5--5--|--------7--7--------7--7--|
--3--3--------------------|--5--5--------------------|
--------------------------|--------------------------|


  E  E  E  E  E  E  E  E     E  E  E  E  E  E  E  E   
--------------------------|--------------------------|
--------------------------|--------------------------|
--------------2--2--------|--------------2--2--------|
--------2--2--------2--2--|--------2--2--------2--2--|
--0--0--------------------|--0--0--------------------|


  E  E  E  E  E  E  E  E     E  E  E  E  E  E  E  E   
--------------------------|--------------------------|
--------------5--5--------|--------------7--7--------|
--------5--5--------5--5--|--------7--7--------7--7--|
--3--3--------------------|--5--5--------------------|
--------------------------|--------------------------|


  E  E  E  E  E  E  E  E     E  E  E  E  E  E  E  E   
--------------4--4--------|--------------4--4--------|
--------4--4--------4--4--|--------4--4--------4--4--|
--2--2--------------------|--2--2--------------------|
--------------------------|--------------------------|
--------------------------|--------------------------|


  E  E  E  E  E  E  E  E     E  E  E  E  E  E  E  E   
--------------------------|--------------------------|
--------------5--5--------|--------------7--7--------|
--------5--5--------5--5--|--------7--7--------7--7--|
--3--3--------------------|--5--5--------------------|
--------------------------|--------------------------|


  E  E  E  E  E  E  E  E     E  E  E  E  E  E  E  E   
--------------4--4--------|--------------4--4--------|
--------4--4--------4--4--|--------4--4--------4--4--|
--2--2--------------------|--2--2--------------------|
--------------------------|--------------------------|
--------------------------|--------------------------|


  E  E  E  E  E  E  E  E     E  E  E  E  E  E  E  E   
--------------------------|--------------------------|
--------------5--5--------|--------------7--7--------|
--------5--5--------5--5--|--------7--7--------7--7--|
--3--3--------------------|--5--5--------------------|
--------------------------|--------------------------|


  E  E  E  E  E  E  E  E     E  E  E  E  E  E  E  E   
--------------7--7--------|--------------7--7--------|
--------7--7--------7--7--|--------7--7--------7--7--|
--5--5--------------------|--5--5--------------------|
--------------------------|--------------------------|
--------------------------|--------------------------|


  E  E  E  E  E  E  E  E     E  E  E  E  E  E  E  E   
--------------4--4--------|--------------4--4--------|
--------4--4--------4--4--|--------4--4--------4--4--|
--2--2--------------------|--2--2--------------------|
--------------------------|--------------------------|
--------------------------|--------------------------|


  E  E  E  E  E  E  E  E     E  E  E  E  E  E  E  E   
--------------7--7--------|--------------7--7--------|
--------7--7--------7--7--|--------7--7--------7--7--|
--5--5--------------------|--5--5--------------------|
--------------------------|--------------------------|
--------------------------|--------------------------|


  E  E  E  E  E  E  E  E     E  E  E  E  E  E  E  E   
--------------9--9--------|--------------9--9--------|
--------9--9--------9--9--|--------9--9--------9--9--|
--7--7--------------------|--7--7--------------------|
--------------------------|--------------------------|
--------------------------|--------------------------|


  E  E  E  E  E  E  E  E     E  E  E  E  E  E  E  E   
--------------7--7--------|--------------7--7--------|
--------7--7--------7--7--|--------7--7--------7--7--|
--5--5--------------------|--5--5--------------------|
--------------------------|--------------------------|
--------------------------|--------------------------|


  E  E  E  E  E  E  E  E     E  E  E  E  E  E  E  E   
--------------5--5--------|--------------5--5--------|
--------5--5--------5--5--|--------5--5--------5--5--|
--3--3--------------------|--3--3--------------------|
--------------------------|--------------------------|
--------------------------|--------------------------|


  E  E  E  E  E  E  E  E     E  E  E  E  E  E  E  E   
--------------------------|--------------------------|
--------------8--8--------|--------------7--7--------|
--------8--8--------8--8--|--------7--7--------7--7--|
--6--6--------------------|--5--5--------------------|
--------------------------|--------------------------|


  E  E  E  E  E  E  E  E     E  E  E  E  E  E  E  E   
--------------7--7--------|--------------7--7--------|
--------7--7--------7--7--|--------7--7--------7--7--|
--5--5--------------------|--5--5--------------------|
--------------------------|--------------------------|
--------------------------|--------------------------|


  E  E  E  E  E  E  E  E     E  E  E  E  E  E  E  E   
--------------4--4--------|--------------4--4--------|
--------4--4--------4--4--|--------4--4--------4--4--|
--2--2--------------------|--2--2--------------------|
--------------------------|--------------------------|
--------------------------|--------------------------|


  E  E  E  E  E  E  E  E     E  E  E  E  E  E  E  E   
--------------7--7--------|--------------7--7--------|
--------7--7--------7--7--|--------7--7--------7--7--|
--5--5--------------------|--5--5--------------------|
--------------------------|--------------------------|
--------------------------|--------------------------|


  E  E  E  E  E  E  E  E     E  E  E  E  E  E  E  E   
--------------9--9--------|--------------9--9--------|
--------9--9--------9--9--|--------9--9--------9--9--|
--7--7--------------------|--7--7--------------------|
--------------------------|--------------------------|
--------------------------|--------------------------|


  E  E  E  E  E  E  E  E     E  E  E  E  E  E  E  E   
--------------7--7--------|--------------7--7--------|
--------7--7--------7--7--|--------7--7--------7--7--|
--5--5--------------------|--5--5--------------------|
--------------------------|--------------------------|
--------------------------|--------------------------|


  E  E  E  E  E  E  E  E     E  E  E  E  E  E  E  E   
--------------5--5--------|--------------5--5--------|
--------5--5--------5--5--|--------5--5--------5--5--|
--3--3--------------------|--3--3--------------------|
--------------------------|--------------------------|
--------------------------|--------------------------|


  E  E  E  E  E  E  E  E     E  E  E  E  E  E  E  E   
--------------4--4--------|-----------5-----------5--|
--------4--4--------4--4--|-----5-----------5--------|
--2--2--------------------|--3-----3-----3-----3-----|
--------------------------|--------------------------|
--------------------------|--------------------------|


  E  E  E  E  E  E  E  E     E  E  E  E  E  E  E  E   
--------------4--4--------|-----------5-----------5--|
--------4--4--------4--4--|-----5-----------5--------|
--2--2--------------------|--3-----3-----3-----3-----|
--------------------------|--------------------------|
--------------------------|--------------------------|


  E  E  E  E  E  E  E  E     E  E  E  E  E  E  E  E   
--------------4--4--------|-----------5-----------5--|
--------4--4--------4--4--|-----5-----------5--------|
--2--2--------------------|--3-----3-----3-----3-----|
--------------------------|--------------------------|
--------------------------|--------------------------|


  E  E  E  E  E  E  E  E     E  Q    E  E  E  E  E     E  E  E  E  E  E  E  E   
--------7--------5--------|--4-------------5-----6--|--------------7--7--------|
-----7--------5--------4--|-------------------------|--------7--7--------7--7--|
--5--------3--------2-----|-----2----2--3-----4-----|--5--5--------------------|
--------------------------|-------------------------|--------------------------|
--------------------------|-------------------------|--------------------------|


  E  E  E  E  E  E  E  E     E  E  E  E  E  E  E  E   
--------------7--7--------|--------------4--4--------|
--------7--7--------7--7--|--------4--4--------4--4--|
--5--5--------------------|--2--2--------------------|
--------------------------|--------------------------|
--------------------------|--------------------------|


  E  E  E  E  E  E  E  E     E  E  E  E  E  E  E  E   
--------------4--4--------|--------------7--7--------|
--------4--4--------4--4--|--------7--7--------7--7--|
--2--2--------------------|--5--5--------------------|
--------------------------|--------------------------|
--------------------------|--------------------------|


  E  E  E  E  E  E  E  E     E  E  E  E  E  E  E  E   
--------------7--7--------|--------------9--9--------|
--------7--7--------7--7--|--------9--9--------9--9--|
--5--5--------------------|--7--7--------------------|
--------------------------|--------------------------|
--------------------------|--------------------------|


  E  E  E  E  E  E  E  E     E  E  E  E  E  E  E  E   
--------------9--9--------|--------------7--7--------|
--------9--9--------9--9--|--------7--7--------7--7--|
--7--7--------------------|--5--5--------------------|
--------------------------|--------------------------|
--------------------------|--------------------------|


  E  E  E  E  E  E  E  E     E  E  E  E  E  E  E  E   
--------------7--7--------|--------------5--5--------|
--------7--7--------7--7--|--------5--5--------5--5--|
--5--5--------------------|--3--3--------------------|
--------------------------|--------------------------|
--------------------------|--------------------------|


  E  E  E  E  E  E  E  E     E  E  E  E  E  E  E  E   
--------------5--5--------|--------------------------|
--------5--5--------5--5--|--------------8--8--------|
--3--3--------------------|--------8--8--------8--8--|
--------------------------|--6--6--------------------|
--------------------------|--------------------------|


  E  E  E  E  E  E  E  E     E  E  E  E  E  E  E  E   
--------------------------|--------------7--7--------|
--------------7--7--------|--------7--7--------7--7--|
--------7--7--------7--7--|--5--5--------------------|
--5--5--------------------|--------------------------|
--------------------------|--------------------------|


  E  E  E  E  E  E  E  E     E  E  E  E  E  E  E  E   
--------------7--7--------|--------------4--4--------|
--------7--7--------7--7--|--------4--4--------4--4--|
--5--5--------------------|--2--2--------------------|
--------------------------|--------------------------|
--------------------------|--------------------------|


  E  E  E  E  E  E  E  E     E  E  E  E  E  E  E  E   
--------------4--4--------|--------------7--7--------|
--------4--4--------4--4--|--------7--7--------7--7--|
--2--2--------------------|--5--5--------------------|
--------------------------|--------------------------|
--------------------------|--------------------------|


  E  E  E  E  E  E  E  E     E  E  E  E  E  E  E  E   
--------------7--7--------|--------------9--9--------|
--------7--7--------7--7--|--------9--9--------9--9--|
--5--5--------------------|--7--7--------------------|
--------------------------|--------------------------|
--------------------------|--------------------------|


  E  E  E  E  E  E  E  E     E  E  E  E  E  E  E  E   
--------------9--9--------|--------------5--5--------|
--------9--9--------9--9--|--------5--5--------5--5--|
--7--7--------------------|--3--3--------------------|
--------------------------|--------------------------|
--------------------------|--------------------------|


  E  E  E  E  E  E  E  E     E  E  E  E  E  E  E  E   
--------------5--5--------|--------------4--4--------|
--------5--5--------5--5--|--------4--4--------4--4--|
--3--3--------------------|--2--2--------------------|
--------------------------|--------------------------|
--------------------------|--------------------------|


  E  E  E  E  E  E  E  E     E  E  E  E  E  E  E  E   
-----------5-----------5--|--------------4--4--------|
-----5-----------5--------|--------4--4--------4--4--|
--3-----3-----3-----3-----|--2--2--------------------|
--------------------------|--------------------------|
--------------------------|--------------------------|


  E  E  E  E  E  E  E  E     E  E  E  E  E  E  E  E   
-----------5-----------5--|--------------4--4--------|
-----5-----------5--------|--------4--4--------4--4--|
--3-----3-----3-----3-----|--2--2--------------------|
--------------------------|--------------------------|
--------------------------|--------------------------|


  E  E  E  E  E  E  E  E     E  E  E  E  E  E  E  E     E  Q.     Q    Q     
-----------5-----------5--|--------7--------5--------|--4-------------------|
-----5-----------5--------|-----7--------5--------4--|----------------------|
--3-----3-----3-----3-----|--5--------3--------2-----|-----2------0----4----|
--------------------------|--------------------------|----------------------|
--------------------------|--------------------------|----------------------|


  E  E  E  E  E  E  E  E     E  E  E  E  E  E  E  E   
--------------------------|--------------------------|
--------------------------|--------------------------|
--5--5--5--5--5--5--5--5--|--5--5--5--5--5--5--5--5--|
--------------------------|--------------------------|
--------------------------|--------------------------|


  E  E  E  E  E  E  E  E     E  E  E  E  Q    Q       E  E  E  E  E  E  E  E   
--------------------------|------------------------|--------------------------|
--------------------------|------------------------|--------------------------|
--------------------------|--------------4----5----|--7--7--7--7--7--7--7--7--|
--5--5--5--5--5--5--5--5--|--5--5--5--5------------|--------------------------|
--------------------------|------------------------|--------------------------|


  E  E  E  E  E  E  E  E     E  E  E  E  E  E  E  E     E  E  E  E  Q    Q     
--------------------------|--------------------------|------------------------|
--------------------------|--------------------------|------------------------|
--7--7--7--7--7--7--7--7--|--------------------------|------------------------|
--------------------------|--7--7--7--7--7--7--7--7--|--7--7--7--7--7----5----|
--------------------------|--------------------------|------------------------|


  E  E  E  E  E  E  E  E     E  E  E  E  E  E  E  E   
--------------------------|--------------------------|
--------------------------|--------------------------|
--------------------------|--------------------------|
--3--3--3--3--3--3--3--3--|--3--3--5--5--5--5--5--5--|
--------------------------|--------------------------|


  E  E  E  E  E  E  E  E     E  E  E  E  E  E  E  E   
--------------------------|--------------------------|
--------------------------|--------------------------|
--5--5--5--5--4--4--4--4--|--------------------------|
--------------------------|--7--7--7--7--5--5--5--5--|
--------------------------|--------------------------|


  E  E  E  E  E  E  E  E     E  E  E  E  E  E  E  E   
--------------------------|--------------------------|
--------------------------|--------------------------|
--------------------------|--------------------------|
--3--3--3--3--3--3--3--3--|--5--5--5--5--5--5--5--5--|
--------------------------|--------------------------|


  E  E  E  E  E  E  E  E     E  E  E  E  E  E  E  E   
--------------------------|--------------------------|
--------------------------|--------------------------|
--------------------------|--------------------------|
--7--7--7--7--7--7--7--7--|--7--7--7--7--7--7--7--7--|
--------------------------|--------------------------|


  E  E  E  E  E  E  E  E     E  E  E  E  E  E  E  E   
--------------7--7--------|--------------7--7--------|
--------7--7--------7--7--|--------7--7--------7--7--|
--5--5--------------------|--5--5--------------------|
--------------------------|--------------------------|
--------------------------|--------------------------|


  E  E  E  E  E  E  E  E     E  E  E  E  E  E  E  E   
--------------4--4--------|--------------4--4--------|
--------4--4--------4--4--|--------4--4--------4--4--|
--2--2--------------------|--2--2--------------------|
--------------------------|--------------------------|
--------------------------|--------------------------|


  E  E  E  E  E  E  E  E     E  E  E  E  E  E  E  E   
--------------7--7--------|--------------7--7--------|
--------7--7--------7--7--|--------7--7--------7--7--|
--5--5--------------------|--5--5--------------------|
--------------------------|--------------------------|
--------------------------|--------------------------|


  E  E  E  E  E  E  E  E     E  E  E  E  E  E  E  E   
--------------9--9--------|--------------9--9--------|
--------9--9--------9--9--|--------9--9--------9--9--|
--7--7--------------------|--7--7--------------------|
--------------------------|--------------------------|
--------------------------|--------------------------|


  E  E  E  E  E  E  E  E     E  E  E  E  E  E  E  E   
--------------7--7--------|--------------7--7--------|
--------7--7--------7--7--|--------7--7--------7--7--|
--5--5--------------------|--5--5--------------------|
--------------------------|--------------------------|
--------------------------|--------------------------|


  E  E  E  E  E  E  E  E     E  E  E  E  E  E  E  E   
--------------5--5--------|--------------5--5--------|
--------5--5--------5--5--|--------5--5--------5--5--|
--3--3--------------------|--3--3--------------------|
--------------------------|--------------------------|
--------------------------|--------------------------|


  E  E  E  E  E  E  E  E     E  E  E  E  E  E  E  E   
--------------------------|--------------------------|
--------------8--8--------|--------------7--7--------|
--------8--8--------8--8--|--------7--7--------7--7--|
--6--6--------------------|--5--5--------------------|
--------------------------|--------------------------|


  E  E  E  E  E  E  E  E     E  E  E  E  E  E  E  E   
--------------7--7--------|--------------7--7--------|
--------7--7--------7--7--|--------7--7--------7--7--|
--5--5--------------------|--5--5--------------------|
--------------------------|--------------------------|
--------------------------|--------------------------|


  E  E  E  E  E  E  E  E     E  E  E  E  E  E  E  E   
--------------4--4--------|--------------4--4--------|
--------4--4--------4--4--|--------4--4--------4--4--|
--2--2--------------------|--2--2--------------------|
--------------------------|--------------------------|
--------------------------|--------------------------|


  E  E  E  E  E  E  E  E     E  E  E  E  E  E  E  E   
--------------7--7--------|--------------7--7--------|
--------7--7--------7--7--|--------7--7--------7--7--|
--5--5--------------------|--5--5--------------------|
--------------------------|--------------------------|
--------------------------|--------------------------|


  E  E  E  E  E  E  E  E     E  E  E  E  E  E  E  E   
--------------9--9--------|--------------9--9--------|
--------9--9--------9--9--|--------9--9--------9--9--|
--7--7--------------------|--7--7--------------------|
--------------------------|--------------------------|
--------------------------|--------------------------|


  E  E  E  E  E  E  E  E     E  E  E  E  E  E  E  E   
--------------5--5--------|--------------5--5--------|
--------5--5--------5--5--|--------5--5--------5--5--|
--3--3--------------------|--3--3--------------------|
--------------------------|--------------------------|
--------------------------|--------------------------|


  E  E  E  E  E  E  E  E     E  E  E  E  E  E  E  E   
--------------4--4--------|-----------5-----------5--|
--------4--4--------4--4--|-----5-----------5--------|
--2--2--------------------|--3-----3-----3-----3-----|
--------------------------|--------------------------|
--------------------------|--------------------------|


  E  E  E  E  E  E  E  E     E  E  E  E  E  E  E  E   
--------------4--4--------|-----------5-----------5--|
--------4--4--------4--4--|-----5-----------5--------|
--2--2--------------------|--3-----3-----3-----3-----|
--------------------------|--------------------------|
--------------------------|--------------------------|


  E  E  E  E  E  E  E  E     E  E  E  E  E  E  E  E   
--------------4--4--------|-----------5-----------5--|
--------4--4--------4--4--|-----5-----------5--------|
--2--2--------------------|--3-----3-----3-----3-----|
--------------------------|--------------------------|
--------------------------|--------------------------|


  E  E  E  E  E  E  E  E     E  Q.     Q    Q       E  E  E  E  E  E  E  E   
--------7--------5--------|--4-------------------|--------------------------|
-----7--------5--------4--|----------------------|--------------------------|
--5--------3--------2-----|-----2------0----4----|--5--5--5--5--5--5--5--5--|
--------------------------|----------------------|--------------------------|
--------------------------|----------------------|--------------------------|


  E  E  E  E  E  E  E  E     E  E  E  E  E  E  E  E     E  E  E  E  Q    Q     
--------------------------|--------------------------|------------------------|
--------------------------|--------------------------|------------------------|
--5--5--5--5--5--5--5--5--|--------------------------|--------------4----5----|
--------------------------|--5--5--5--5--5--5--5--5--|--5--5--5--5------------|
--------------------------|--------------------------|------------------------|


  E  E  E  E  E  E  E  E     E  E  E  E  E  E  E  E   
--------------------------|--------------------------|
--------------------------|--------------------------|
--7--7--7--7--7--7--7--7--|--7--7--7--7--7--7--7--7--|
--------------------------|--------------------------|
--------------------------|--------------------------|


  E  E  E  E  E  E  E  E     E  E  E  E  Q    Q       E  E  E  E  E  E  E  E   
--------------------------|------------------------|--------------------------|
--------------------------|------------------------|--------------------------|
--------------------------|------------------------|--------------------------|
--7--7--7--7--7--7--7--7--|--7--7--7--7--7----5----|--3--3--3--3--3--3--3--3--|
--------------------------|------------------------|--------------------------|


  E  E  E  E  E  E  E  E     E  E  E  E  E  E  E  E   
--------------------------|--------------------------|
--------------------------|--------------------------|
--------------------------|--5--5--5--5--4--4--4--4--|
--5--5--5--5--5--5--5--5--|--------------------------|
--------------------------|--------------------------|


  E  E  E  E  E  E  E  E     E  E  E  E  E  E  E  E   
--------------------------|--------------------------|
--------------------------|--------------------------|
--------------------------|--------------------------|
--7--7--7--7--5--5--5--5--|--3--3--3--3--3--3--3--3--|
--------------------------|--------------------------|


  E  E  E  E  E  E  E  E     E  E  E  E  E  E  E  E   
--------------------------|--------------------------|
--------------------------|--------------------------|
--------------------------|--------------------------|
--5--5--5--5--5--5--5--5--|--7--7--7--7--7--7--7--7--|
--------------------------|--------------------------|


  E  E  E  E  E  E   Q       Q.     E  H           Q.     E    H         
--------------------------|---------------------|-----------------------|
--------------------------|---------------------|-----------------------|
--------------------------|------------7--------|-----------------------|
--7--7--7--7--7--7s--0----|--7------7-----------|--5------5s--10--------|
--------------------------|---------------------|-----------------------|


  Q.     E   H           H        E  E  Q       Q.     E  H         
----------------------|----------------------|---------------------|
----------------------|----------------------|---------------------|
----------------------|----------------------|------------7--------|
--3------3s--9--------|--2--------2--4--6----|--7------7-----------|
----------------------|----------------------|---------------------|


  Q.     E    H           H        H           H        E  E   E  E   
-----------------------|--------------------|------------------------|
-----------------------|--------------------|------------------------|
-----------------------|--------------------|------------------------|
--5------5s--10--------|--3--------2--------|--7--------7--5--10--9--|
-----------------------|--------------------|------------------------|


  E  E  E  E  E  E  E  E     E  E  E  E  E  E  E  E   
--------------------------|--------------------------|
--------------------------|--------------------------|
--------------7--7--7--7--|--------------5--5--5--5--|
--7--7--7--7--------------|--5--5--5--5--------------|
--------------------------|--------------------------|


  E  E  E  E  E  E  E  E     E  E  E  E  E  E  Q       E  E  E  E  E  E  E  E   
--------------------------|-------------------------|--------------------------|
--------------------------|-------------------------|--------------------------|
--------------4--4--4--4--|-------------------------|--------------7--7--7--7--|
--3--3--3--3--------------|--2--2--2--2--2--4--6----|--7--7--7--7--------------|
--------------------------|-------------------------|--------------------------|


  E  E  E  E  E  E  E  E     E  E  E  E  E  E  E  E   
--------------------------|--------------------------|
--------------------------|--------------------------|
--------------5--5--5--5--|--------------------------|
--5--5--5--5--------------|--3--3--3--3--2--2--2--2--|
--------------------------|--------------------------|


  E  E  E  E  E  E  E  E     Q    E  Q    Q    E     E  E  Q    Q    Q     
--------------------------|-----------------------|-----------------------|
--------------------------|-----------------------|-----------------------|
--------------------------|-----------------------|-----------------------|
--7--7--7--7--7--7--x--x--|--7----7--7----7----7--|--L--7--7----7----7----|
--------------------------|-----------------------|-----------------------|


  Q    E  Q    Q    E     E  E  Q     Q    Q       Q    E  Q    Q    E   
-----------------------|------------------------|-----------------------|
-----------------------|------------------------|-----------------------|
-----------------------|------------------------|-----------------------|
--3----3--3----3----5--|--L--5--5----10----9----|--7----7--7----7----7--|
-----------------------|------------------------|-----------------------|


  E  E  Q    Q    Q       Q    E  Q    Q    E     E  E  Q     Q    Q     
-----------------------|-----------------------|------------------------|
-----------------------|-----------------------|------------------------|
-----------------------|-----------------------|------------------------|
--L--7--7----7----7----|--3----3--3----3----5--|--L--5--5----10----9----|
-----------------------|-----------------------|------------------------|


  E  E  E  E  E  E  E  E     E  E  E  E  E  E  E  E   
--------------4--4--------|--------------4--4--------|
--------4--4--------4--4--|--------4--4--------4--4--|
--2--2--------------------|--2--2--------------------|
--------------------------|--------------------------|
--------------------------|--------------------------|


  E  E  E  E  E  E  E  E     E  E  E  E  E  E  E  E   
--------------------------|--------------------------|
--------------5--5--------|--------------7--7--------|
--------5--5--------5--5--|--------7--7--------7--7--|
--3--3--------------------|--5--5--------------------|
--------------------------|--------------------------|


  E  E  E  E  E  E  E  E     E  E  E  E  E  E  E  E   
--------------4--4--------|--------------4--4--------|
--------4--4--------4--4--|--------4--4--------4--4--|
--2--2--------------------|--2--2--------------------|
--------------------------|--------------------------|
--------------------------|--------------------------|


  E  E  E  E  E  E  E  E     E  E  E  E  E  E  E  E     W                 
--------------------------|--------------------------|-------------------|
--------------5--5--------|--------------7--7--------|-------------------|
--------5--5--------5--5--|--------7--7--------7--7--|--2----------------|
--3--3--------------------|--5--5--------------------|-------------------|
--------------------------|--------------------------|-------------------|


  W                  
-------------------||
-------------------||
--L----------------||
-------------------||
-------------------||
Login or Register to remove this ad.

2 comments on Wicked Flight

It wouldn't be that bad to

5

It wouldn't be that bad to just put the lead guitar in the place of the piano instead of having rests. This is a tab for the whole song, after all, not just the guitar part.
Great tab, btw.

You are right, I'll add that

You are right, I'll add that part too. Thank you for the feedback :D