Milky (Bomberman Hero) Guitar Tab

Submitted: Dec 13, 2012 by Lemoncobbler

5
Average: 5 (1 vote)
Download | Listen
Game: Bomberman Hero
Composer(s): Jun Chiki Chikuma
Style: Arrangement, Fingerstyle

AutoScroll: Slow | Medium | Fast
                             Bomberman Hero - Milky                                       
                            Composed by: Jun Chikuma

                                                        Arranged by Lemoncobbler
Track 1



     E  E  E  E  Q    E  E     Q    E  E  E  E  E  E   
E||-----0-----0--3----0-----|--0-------0--3--0--L--0--|
B||--------3-------------3--|-------3-----------------|
G||-------------------------|-------------------------|
D||-------------------------|-------------------------|
A||-----------0--0----------|----------2--2-----------|
D||--0----------------------|--2-------------2--L-----|


  E  E  E  E  E  E  E  E     Q    E  E  E  E  E  E     E  E  E  E  Q    E  E   
-----0-----0--3--L--0-----|--0-------0--5--3--0-----|-----0-----0--3----0-----|
--------3--------------3--|-------3-----------------|--------3-------------3--|
--------------------------|-------------------------|-------------------------|
--------------------------|----------------------0--|-------------------------|
--0--------0--------------|-------------------------|-----------0--0----------|
--------------2--L--------|--5-------5--0-----------|--0----------------------|


  Q    E  E  E  E  E  E     E  E  E  E  E  E  E  E     E  E  E  E  E  E  Q     
--0-------0--3--0--L--0--|-----0-----0--3--L--0--5--|--L-----8--5--3--0-------|
-------3-----------------|--------3-----------------|-----8--------------3----|
-------------------------|--------------------------|-------------------------|
-------------------------|--------------------------|-------------------------|
----------2--2-----------|--0--------0--------------|-------------------------|
--2-------------2--L-----|--------------2--L--------|--5-----L--5--0--5--L----|


    Q    E  E  Q    Q       Q    E  E  Q    Q       Q    E  E  Q    E  E   
|------------------------|-----------------------|------------------------|
|-------------------1----|--0--------------------|------------------------|
|*-------------0---------|-------2---------------|------------------------|
|*--2----3---------------|-------------2----0----|--2----L----------------|
|-----------0--0---------|----------2------------|----------0--0----L-----|
|---0--------------------|--2----------2---------|--0------------------0--|


  Q.     E  Q.     E       Q    E  E  Q    E  E     Q    E  E  E  E  Q     
-----------------------||-------0----------------|------------------------|
-----------------------||----------3-------------|----------------1--L----|
----------------------*||-------------2----L--0--|--2----2--0--2----------|
----------------------*||------------------------|------------------------|
---------2--2----------||----------0--0----L-----|----------2--2----------|
--2----------------2---||--0------------------0--|--2-------------2--L----|


  Q    E  E  E  E  E  E     Q    E  E  E  Q.        Q    E  E  Q    E  E   
-------0--------L--------|-----------------------|-------0----------------|
----------3--------------|-----------------------|----------3-------------|
-------------2-----L--0--|----------0-----5------|-------------2----L--0--|
-------------------------|--7----7-----7---------|------------------------|
--0-------0--------------|-----------------------|----------0--0----L-----|
-------------2-----------|--5-------5--0---------|--0------------------0--|


  Q    E  E  E  E  Q       Q    E  E  E  E  E  E     Q    E  E  E  Q.      
------------------------|-------0--------L--------|-----------------------|
----------------1--L----|----------3--------------|-----------------------|
--2----2--0--2----------|-------------2-----L--0--|----------0-----5------|
------------------------|-------------------------|--7----7-----7---------|
----------2--2----------|--0-------0--------------|-----------------------|
--2-------------2--L----|-------------2-----------|--5-------5--0---------|


  E  E  E  E  Q    E  E     Q    E  E  E  E  E  E     E  E  E  E  E  E  E  E   
--------------0----------|-------------0-----L-----|--------------0--L--------|
-----1-----1-------3-----|--1-------1-----3--------|-----1-----1--------3-----|
--------2-------------2--|-------2--------------2--|--------2--------------2--|
-------------------------|-------------------------|--------------------------|
-----------0--0----------|----------2--2-----------|--0--------0--------------|
--0----------------------|--2-------------2--L-----|--------------2--L--------|


  E  E  E  E  E  E  E  E     E  E  E  E  Q    E  E     Q    E  E  E  E  E  E   
--------------------------|--------------0----------|-------------0-----L-----|
--------------5-----------|-----1-----1-------3-----|--1-------1-----3--------|
--5--5-----5-----7--5-----|--------2-------------2--|-------2--------------2--|
--------7--------------7--|-------------------------|-------------------------|
--------------------------|-----------0--0----------|----------2--2-----------|
--5--------5--0-----------|--0----------------------|--2-------------2--L-----|


  E  E  E  E  E  E  E  E     E  E  E  E  E  E  E  E       Q.     E  Q    Q     
--------------0--L-----3--|-----3--0-----------------||-------------0----L----|
-----1-----1--------3-----|-----------3--------------||-------------1----3----|
--------2-----------------|--------------5--2--0--2--||*--2---------2----L----|
--------------------------|--------------------------||*--2-------------------|
--0--------0--------------|--------------------------||----------0--0----L----|
--------------2--L--------|--5--------5--0-----------||---0-------------------|


  Q.     E  Q    Q       Q.     E  Q    Q       Q.     E  Q    Q       
--5---------0---------|------------0---------|--5---------3----0-----||
--3--------------3----|------------1----3----|--3---------3----------||
----------------------|--2---------2---------|----------------------*||
----------------------|--2-------------------|----------------------*||
---------2--2---------|--0------0------------|-----------------------||
--2-------------------|------------2---------|--5------5--0----------||


   Q    E  E  Q    Q       Q    E  E  Q    Q       Q    E  E  Q    E  E   
------------------------|-----------------------|------------------------|
-------------------1----|--0--------------------|------------------------|
*-------------0---------|-------2---------------|------------------------|
*--2----3---------------|-------------2----0----|--2----L----------------|
-----------0--0---------|----------2------------|----------0--0----L-----|
---0--------------------|--2----------2---------|--0------------------0--|


  Q.     E  Q.     E       Q    E  E  Q    E  E     Q    E  E  E  E  Q     
-----------------------||-------0----------------|------------------------|
-----------------------||----------3-------------|----------------1--L----|
----------------------*||-------------2----L--0--|--2----2--0--2----------|
----------------------*||------------------------|------------------------|
---------2--2----------||----------0--0----L-----|----------2--2----------|
--2----------------2---||--0------------------0--|--2-------------2--L----|


  Q    E  E  E  E  E  E     Q    E  E  E  Q.        Q    E  E  Q    E  E   
-------0--------L--------|-----------------------|-------0----------------|
----------3--------------|-----------------------|----------3-------------|
-------------2-----L--0--|----------0-----5------|-------------2----L--0--|
-------------------------|--7----7-----7---------|------------------------|
--0-------0--------------|-----------------------|----------0--0----L-----|
-------------2-----------|--5-------5--0---------|--0------------------0--|


  Q    E  E  E  E  Q       Q    E  E  E  E  E  E     Q    E  E  E  Q.      
------------------------|-------0--------L--------|-----------------------|
----------------1--L----|----------3--------------|-----------------------|
--2----2--0--2----------|-------------2-----L--0--|----------0-----5------|
------------------------|-------------------------|--7----7-----7---------|
----------2--2----------|--0-------0--------------|-----------------------|
--2-------------2--L----|-------------2-----------|--5-------5--0---------|


  ^                  
  W                  
-------------------||
-------------------||
--2----------------||
--2----------------||
--0----------------||
-------------------||




Duration Legend
---------------
W - whole
H - half
Q - quarter
E - 8th
S - 16th
T - 32nd
X - 64th
. - note dotted
|-n-|  - n-tuplets


Tablature Legend
----------------
L - tied note
x - dead note
g - grace note
(n) - ghost note
> - accentuded note
NH - natural harmonic
AH - artificial harmonic
TH - tapped harmonic
SH - semi harmonic
PH - pitch harmonic
h - hammer on
p - pull off
b - bend
br - bendRelease
pb - preBend
pbr - preBendRelease
brb - bendReleaseBend
\n/ - tremolo bar dip
\n - tremolo bar dive
-/n - tremolo bar Release up
/n\ - tremolo bar inverted dip
/n - tremolo bar return
-\n - tremolo bar Release down
S - shift slide
s - legato slide
/ -  slide into from below or out of upwards
\ -  slide into from above or out of downwards
~ - vibrato
W - wide vibrato
tr - trill
TP - tremolo picking
T - tapping
S - slap
P - pop
< - fade in
^ - brush up
v - brush down
Login or Register to remove this ad.