Will of the Heart (Bleach) Guitar Tab

Submitted: Sep 17, 2012 by Sevensquared

3
Average: 3 (2 votes)
Download | Listen
Game: Bleach
Composer(s): Yoshiki Muzuo, Ikimono Gakar
Style: Fingerstyle, Transcription

AutoScroll: Slow | Medium | Fast
Will of heart by Sevensquared
Don't forget to tune the guitar, the tuning is strange.
Be careful to not hit the 6th or 5th string to hard since they will be really loose.
All Notes are Quarters.

E5|-13-----12-----|-10---8---|-6-----5----|-3--1--0-----|-1-----0----|-------------|
B4|-----10----10--|----8---6-|-------3----|-------------|------------|-------------|
G4|---------------|----------|-0--7-----7-|-3---------2-|----2-----2-|-7--0--------|
D4|-12--L--10-L---|--8-L-7-L-|----5--3--5-|-2--0--------|-0--L--3--L-|-------9--3--|
D3|---------------|----------|----7-----7-|-------8-----|------------|-8--L--7-----|
A2|---------------|----------|------------|-------11----|------------|-------------|

E5|-------------|------------|------------|-------------|------------|------------|
B5|-------------|------------|------------|-------------|------------|------------|
G4|--------2----|-2----------|------------|-------------|------------|------------|
D4|-8---0--0--3-|-5--3--2----|-3-----2----|-0-----------|------------|------------|
D3|--------3--3-|-2--0-----2-|-0--9-----9-|----5--10--5-|-8-----7----|-5--3--1--L-|
A2|-10--1-----0-|-------4--0-|-------3----|-1------0--L-|----5--5--5-|-0--0--0--L-|
Login or Register to remove this ad.

1 comment on Will of the Heart

tuning

what exactly is the tuning?