Ads

Torn Apart (Bleach) Guitar Tab

Submitted: Jun 11, 2013 by scarecrowlol (Last updated: May 21, 2014)

5
Average: 5 (6 votes)
Download | Listen
Game: Bleach
Composer(s): Yoshiki Muzuo, Ikimono Gakar
Style: Arrangement, Artificial harmonics, Fingerstyle

Click here for a video example.

AutoScroll: Slow | Medium | Fast
Title: Torn Apart
SubTitle: Bleach
Artist: Shiro Sagisu
Tabber: Mitch Jackson
Tempo = 71
T/S = 4/4

TUNING = Drop 'A'  (Down 5 Semi-tones from Standard) 


      S  S  S  S  E     E     E     E     E     E          S  S  S  S  E     E     E     E     E     E        
B ||-----12-13-15-------17----15----13----12----13------|-----12-13-15-------17----15----13----12----13-----||
F#||--------------11------------------------------------|--------------11-----------------------------------||
D ||o-14----------12----------------------15----14------|--14----------12----------------------15----14----o||
A ||o-------------------------15------------------------|--------------------------15----------------------o||
E ||----------------------------------------------------|---------------------------------------------------||
A ||--------------0-----------------------0-------------|--------------0-----------------------0------------||

                                                      

      S  S  S  S  E     E     E     E     E     E          S  S  S  S  E     E     E     E     E     E        
  ||-----12-13-15-------17----15----13----12----13------|-----12-13-15-------17----15----13----12----13-----||
  ||--------------11------------------------------------|--------------11-----------------------------------||
  ||o-14----------12----------------------15----14------|--14----------12----------------------15----14----o||
  ||o-------------------------15------------------------|--------------------------15----------------------o||
  ||----------------------------------------------------|---------------------------------------------------||
  ||----------------------------------------------------|---------------------------------------------------||

                                                     
                                            ^                                                         ^
      E  E  E  E  Q     Q          Q.       H           E       E  E  E  E  Q     Q          Q.       H           E     
   |-----0--0--0--0-----1-------|-(0)-------3L----------L----|-----0--0--0--0-----1-------|-(0)-------3L----------L----|
   |-----1--1--1--1-----3-------|--3--------1L----------L----|-----1--1--1--1-----3-------|--3--------1L----------L----|
   |-----2--2--2--2-----3-------|--2--------2L----------L----|-----2--2--2--2-----3-------|--2--------2L----------L----|
   |-----0--0--0--0-------------|--3--------2L----------L----|-----0--0--0--0-------------|--3--------2L----------L----|
   |----------------------------|--1--------0L----------L----|----------------------------|--1--------0L----------L----|
   |--0-------------------------|----------------------------|--0-------------------------|----------------------------|

       
                                                                       
      S S S S E  E  E  E  E  E       S S S S E  E  E  E  E  E       S S S S E  E  E  E  E  E       S S S S S  E  E  E  E  E     
   |----0-1-3----5--3--1--0--1----|----0-1-3----5--3--1--0--1----|----0-1-3----5--3--1--0--1----|----0-1-3----5--3--1--0--1----|
   |------------------------------|------------------------------|------------------------------|------------------------------|
   |--2-------3-----------3--2----|--2-------3-----------3--2----|--2-------3-----------3--2----|--2-------3-----------3--2----|
   |------0---0--0--0-------------|------------------------------|------0---0--0--0-------------|------------------------------|
   |------------------------------|--1----------0----------------|------------------------------|--1----------0----------------|
   |--0---------------------------|------------------------------|--0---------------------------|------------------------------|


                                               
                                   ^                                                         ^ 
      E  E  E  E  Q     Q          Q     E  E  Q     Q          E  E  E  E  Q     Q          Q     E  E  Q     Q        
   |--------0-----1-----3-------|--5-----6-----5-------------|--1-----3-----5-----6-------|--8-----10----8-------------|
   |--3-------------------------|--------------------8-------|--3-----5-----6-----8-------|--------------------11------|
   |-----2--2--2--2-----3-------|--7-------------------------|----------------------------|--10------------------------|
   |-----0--0--0--0-------------|----------------------------|-----0--0--0--0-----8-------|----------------------------|
   |----------------------------|----------------------------|----------------------------|----------------------------|
   |--0-------------------------|--8--------7----------------|--0-------------------------|--8--------7----------------|

                                                                                         

      ^
      Q     H           Q          Q     Q     Q     Q          E  E  E  E  E  E  E  E       E  E  E  E  E  E  E  E
   |----------------------------|----------------------------|--------5-------------------|--------5-------------------|
   |--10------------------------|--------------5-----6-------|--------------8-----6--5----|--------------8-----6--5----|
   |--10------------------------|--------7-------------------|----------------------------|----------------------------|
   |--12------------------------|----------------------------|--8-----7-----7-----7-------|--8-----7-----7-----7-------|
   |----------------------------|----------------------------|-----5-----5-----5-----5----|-----5-----5-----5-----5----|
   |--0-----0-----------0L------|--L-------------------------|--5-------------------------|--5-------------------------|




      E  E  E  E  E  E  E  E       E  E  E  E  E  E  E  E       E  E  E  E  E  E  E  E       E  E  E  E  E  E  E  E
   |----------------------------|----------------------------|--------5-------------------|--------5-------------------|
   |--------6-----5-----6-------|--8-----6--5--6-----5--6----|--------------8-----6--5----|--------------8-----6--5----|
   |----------------------------|-----------------7----------|----------------------------|----------------------------|
   |--8--8-----8-----8-----8----|-----8-----8----------------|--8-----7-----7-----7-------|--8-----7-----7-----7-------|
   |--5-----5-----5-----5-------|--5-----5-----5-------------|-----5-----5-----5-----5----|-----5-----5-----5-----5----|
   |----------------------------|----------------------------|--5-------------------------|--5-------------------------|




      E  E  E  E  E  E  E  E       E  E  E  E  E  S  S  E   S  S      Q     Q     Q     Q           E  E  E  E  E  E  E  E     
   |----------------------------|----------------------------------|--------11----13----14------||--7-----6-------------------|
   |--------6-----5-----6-------|--8-----6--5--6-------------------|----------------------------||--------------9-----7--6----|
   |----------------------------|----------------------------------|--------8-----10----11------||o---------------------------|
   |--8--8-----8-----8-----8----|-----8-----8----------------------|----------------------------||o-------8-----8-----8-------|
   |--5-----5-----5-----5-------|--5-----5-----5-------------------|--------------------0-------||-----6-----6-----6-----6----|
   |----------------------------|-----------------12-11-10--10-9---|--8-------------------------||--6-------------------------|


                                                                                          
                                                             |--FIRST & SECOND ENDINGS---> |---THIRD ENDING------------>
      E  E  E  E  E  E  E  E       E  E  E  E  E  E  E  E       E  E  E  E  E  E  E  E    x3  E  E  E  E  Q     Q        
   |--------6-------------------|----------------------------|-----------------11-13-14---||----------------------------|
   |--------------9-----7--6----|--------7-----6-----7-------|--9-----7--6--7-------------||--9-----7--6--7s---(0)------|
   |----------------------------|----------------------------|---------------------------o||----------------------------|
   |--9-----8-----8-----8-------|--9--9-----9-----9-----9----|-----9-----9---------------o||-----9-----9----------------|
   |-----6-----6-----6----------|--6-----6-----6-----6-------|--6-----6-----6-------------||--6-----6-----6-------------|
   |--6-------------------------|----------------------------|----------------------------||----------------------------|



      ^           A.H.
      H           H                W
   |--4----------<4>------------|--L-------------------------||
   |----------------------------|----------------------------||
   |--3L----------L-------------|--L-------------------------||
   |--1L----------L-------------|--L-------------------------||
   |----------------------------|----------------------------||
   |--1L----------L-------------|--L-------------------------||




   I omitted this following segment from the tab because of difficulty but will leave as an alternate way of ending from bar 28 onwards...

 

                                                                                          |--FIRST & SECOND ENDINGS--->
      E  E  E  E  E  E  E  E       E  E  E  E  E  E  E  E       E  E  E  E  E  E  E  E       E  E  E  E  E  E  E  E   x3
   ||--7-----18----16----14-13---|--7-----18----16----14-13---|--------14----13----14------|--16----14-13-14-11-13-14--||
   ||----------------------------|----------------------------|----------------------------|---------------------------||
   ||o---------------------------|----------------------------|----------------------------|--------------------------o||
   ||o---------------------------|----------------------------|--16------------------------|--------------------------o||
   ||-----6--13----13----13------|-----6--13----13----13------|-----14----14----14----14---|-----14----14--------------||
   ||--6--------13----13----13---|--6--------13----13----13---|--13----13----13----13------|--13----13----13-----------||

 
   |---THIRD ENDING------------>   ^           A.H
      E  E  E  E  Q     Q          H           H                W
   |--16----14-13-14s--(8)------|--4----------<4>------------|--L-------------------------||
   |----------------------------|----------------------------|----------------------------||
   |----------------------------|--3L----------L-------------|--L-------------------------||
   |----------------------------|--1L----------L-------------|--L-------------------------||
   |-----14----14---------------|----------------------------|----------------------------||
   |--13----13----13------------|--1L----------L-------------|--L-------------------------||

Login or Register to remove this ad.