Ads

Swan Song (Bleach) Guitar Tab

Submitted: Nov 30, 2013 by scarecrowlol (Last updated: Dec 15, 2013)

5
Average: 5 (6 votes)
Download | Listen
Game: Bleach
Composer(s): Yoshiki Muzuo, Ikimono Gakar
Style: Arrangement, Fingerstyle

AutoScroll: Slow | Medium | Fast
Title: Swan Song
SubTitle: Bleach
Artist: Shiro Sagisu
Tabber: Mitch Jackson
Tempo = 136
T/S = 4/4

TUNING = Drop C


                  ^                                                         ^   
      E  E  Q     H                H           Q     Q          E  E  Q     H                      
D ||-------------(5)------------|----------------------------|-------------(5)------------|
A ||--5--6--------6-------------|--8-----------6-----5-------|--5--6--------6-------------|
F ||o-------7-----5-------------|----------------------------|--------7-----5-------------|
C ||o-5-----------8-------------|----------------------------|--5-----------8-------------|
G ||--5-----8-----5-------------|----------------------------|--5-----8-----5-------------|
C ||--------------5-------------|----------------------------|--------------5-------------|

                                              ^
     H           Q     Q          E  E  Q     H                H           Q     Q                                                         
  |----------------------------|-------------(5)------------|----------------------------|
  |--8-----------6-----5-------|--5--6--------6-------------|--8-----------6-----5-------|
  |----------------------------|--------7-----5-------------|----------------------------|
  |----------------------------|--5-----------8-------------|----------------------------|
  |----------------------------|--5-----8-----5-------------|----------------------------|
  |----------------------------|--------------5-------------|----------------------------|

                 ^
     E  E  Q     H                H           Q     Q          E  E  Q     Q     Q                                                                     
  |-------------(5)------------|----------------------------|--------3-----5-------------|
  |--5--6--------6-------------|--8-----------6-----5-------|--5--6----------------------|
  |--------7-----5-------------|----------------------------|--------------0-----2-------|
  |--5-----------8-------------|----------------------------|----------------------------|
  |--5-----8-----5-------------|----------------------------|--------3-------------------|
  |--------------5-------------|----------------------------|--3-------------------------|

          
     Q     H.                     E  E  Q     H                W                                         
  |--0-------------------------|-----3----------------------|---------------------------||
  |----------------------------|--3-----3-----2L------------|--L------------------------||
  |--------2-------------------|--------------2L------------|--L-----------------------o||
  |----------------------------|----------------------------|--------------------------o||
  |----------------------------|--------------0L------------|--L------------------------||
  |----------------------------|--2-------------------------|---------------------------||

  3/4                                                      
     E  E  E  E  E  E       E  E  E  E  E  E       E  E  E  E  E  E       E  E  E  E  E  E
  |----------------------|----------------------|-----------------3----|-----------------3----|
  |-----------------3----|-----------------3----|-----------3--0-------|-----------3--0-------|
  |--------0-------------|--------0-------------|--------0-------------|--------0-------------|
  |-----------2--4-------|-----------2--4-------|----------------------|----------------------|
  |-----0----------------|-----0----------------|-----2----------------|-----2----------------|
  |--0-------------------|--0-------------------|--0-------------------|--0-------------------|


     E  E  E  E  E  E       E  E  E  E  E  E       E  E  E  E  E  E       E  E  E  E  E  E                                                                               
  |-----------0-----5----|-----------0-----5----|-----------------3----|-----------------3----|
  |----------------------|----------------------|-----------3--0-------|-----------3--0-------|
  |--------------6-------|--------------6-------|--------0-------------|--------0-------------|
  |--------7-------------|--------7-------------|----------------------|----------------------|
  |-----4----------------|-----4----------------|-----2----------------|-----2----------------|
  |--0-------------------|--0-------------------|--0-------------------|--0-------------------|

                                              
     E  E  E  E  E  E       E  E  E  E  E  E       E  E  E  E  E  E       E  E  E  E  E  E                       
  |----------------------|----------------------|-----------------3----|-----------------3----|
  |-----------------3----|-----------------3----|--0--------3--0-------|-----------3--0-------|
  |--2-----0-------------|--------0-------------|--------0-------------|--------0-------------|
  |-----------2--4-------|-----------2--4-------|----------------------|----------------------|
  |-----0----------------|-----0----------------|-----2----------------|-----2----------------|
  |--0-------------------|--0-------------------|--0-------------------|--0-------------------|

    
     E  E  E  E  E  E       E  E  E  E  E  E       E  E  E  E  E  E       E  E  E  E  E  E                                                                 
  |-----------0-----5----|-----------0-----5----|-----------------3----|--0--------------3----|
  |----------------------|----------------------|--3--------3--0-------|-----------3--0-------|
  |--6-----------6-------|--------------6-------|--------0-------------|--------0-------------|
  |--------7-------------|--------7-------------|----------------------|----------------------|
  |-----4----------------|-----4----------------|-----2----------------|-----2----------------|
  |--0-------------------|--0-------------------|--0-------------------|--0-------------------|

                                                                      
      Q     Q     Q          Q     Q     Q          Q     Q     Q          Q     Q     Q                                                               
  ||--2-----2-----2-------|--0-----0-----0-------|--2-----2-----3-------|--2-----2-----0-------|
  ||--0-----0-----0-------|--0-----0-----0-------|--2-----2-----2-------|--2-----2-----2-------|
  ||o---------------------|--2-----2-----2-------|--4-----4-----4-------|--3-----3-----3-------|
  ||o-0-----0-----0-------|--0----(0)---(0)------|----------------------|--4-------------------|
  ||----------------------|----------------------|----------------------|----------------------|
  ||--5-------------------|----------------------|--4-------------------|----------------------|

                           
     Q     Q     Q          Q     Q     E  E       Q     E  E  Q          Q     E  E  Q                            
  |-------(0)---(0)------|--------------0--2----|--3--------2----------|-----------5---------||
  |--3-----3-----3-------|--3-----3-------------|--1-----1-----1-------|--8------------------||
  |--2-------------------|--4-----4-------------|----------------------|--5-----5-----5-----o||
  |--4-----4-----4-------|--4-----4-------------|--2-----2-----2-------|--7-----7-----7-----o||
  |--2-------------------|----------------------|--0-------------------|--0------------------||
  |----------------------|----------------------|----------------------|--0------------------||


     Q     Q     Q          Q     Q     Q          Q     Q     Q          Q     Q     Q                                                                          
  |--2-----2-----2-------|--0-----0-----0-------|--2-----2-----3-------|--2-----2-----0-------|
  |--0-----0-----0-------|--0-----0-----0-------|--2-----2-----2-------|--2-----2-----2-------|
  |----------------------|--2-----2-----2-------|--4-----4-----4-------|--3-----3-----3-------|
  |--0-----0-----0-------|--0----(0)---(0)------|----------------------|--4-------------------|
  |----------------------|----------------------|----------------------|----------------------|
  |--5-------------------|----------------------|--4-------------------|----------------------|

                                                   ^                                        
     H.                     Q     Q     Q          H.                     H.
  |----------------------|----------------------|--2-------------------|--0-------------------|
  |--4-------------------|--------------4-------|--3-------------------|----------------------|  
  |--4-------------------|--------4-------------|--4-------------------|--3-------------------| Da Capo
  |--4-------------------|--4-------------------|--2-------------------|--2-------------------|
  |--2-------------------|----------------------|--2-------------------|----------------------|
  |----------------------|----------------------|--2-------------------|--4-------------------|
 
   4/4           ^                
     E  E  Q     H                W
  |--------------5L------------|--L-------------------------||
  |--5--6--------6L------------|--L-------------------------||  
  |--------7-----5L------------|--L-------------------------||
  |--5-----------8L------------|--L-------------------------||
  |--5-----8-----5L------------|--L-------------------------||
  |--------------5L------------|--L-------------------------||

Login or Register to remove this ad.

2 comments on Swan Song

love it !!!

love it !!!

I've honestly had this tab

I've honestly had this tab sitting half finished on my pc for about a year lol ;p is it just me or is the MP3 really quiet?