Ads

A Requiem (Bleach) Guitar Tab

Submitted: Jul 26, 2012 by scarecrowlol (Last updated: Mar 03, 2013)

5
Average: 5 (4 votes)
Download | Listen
Game: Bleach
Composer(s): Yoshiki Muzuo, Ikimono Gakar
Style: 2 or more instruments, Arrangement, Fingerstyle

AutoScroll: Slow | Medium | Fast
Title: A Requim
SubTitle: Bleach OST
Composer: Shiro Sagisu
Music: Tabbed by Mitch Jackson


TS: 12/8   (Let notes ring out as much as possible)

     E  E  E  E  E  E  E  E  E  E  E  E     E  E  E  E  E  E  E  E  E  E  E  E     E  E  E  E  E  E  E  E  E  E  E  E     E  E  E  E  E  E  E  E  E  E  E  E
E |--------------------------------------|--------------------------------------|-----------------0--------------------|-----------------0--------------------|
B |-----------------5--3-----------------|-----------------5--3-----------------|-----------0--------3-----0-----------|-----------0--------3-----0-----------|
G |-----------4--2--------2--4-----2-----|-----------4--2--------2--4-----2-----|--------------2--------2--------2-----|--------------2--------2--------2-----|
D |--------2--------------------2--------|--------2--------------------2--------|--------3--------------------3--------|--------3--------------------3--------|
A |-----2-----------------------------2--|-----2-----------------------------2--|-----3-----------------------------3--|-----3-----------------------------3--|
E |--0-----------------------------------|--0-----------------------------------|--1-----------------------------------|--1-----------------------------------|

   
    Gtr 1

      E  E  E  E  E  E  E  E  E  E  E  E     E  E  E  E  E  E  E  E  E  E  E  E     E  E  E  E  E  E  E  E  E  E  E  E     E  E  E  E  E  E  E  E  E  E  E  E
 ||---------------------------------------|--------------------------------------|-----------------0--------------------|-----------------0---------------------||
 ||------------------5--3-----------------|-----------------5--3-----------------|-----------0--------3-----0-----------|-----------0--------3-----0------------||  
 ||o--4L-------4--2--------2--4-----2-----|--2L-------4--2--------2--4-----2-----|--0L----------2--------2--------2-----|--------------2--------2--------2-----o|| x2
 ||o--2L----2--------------------2--------|--2L----2--------------------2--------|--3-----3--------------------3--------|--2L----3--------------------3--------o||
 ||------2-----------------------------2--|-----2-----------------------------2--|-----3-----------------------------3--|-----3-----------------------------3---||
 ||---0-----------------------------------|--0-----------------------------------|--1-----------------------------------|--1------------------------------------||
 ||
 || Gtr 2
 ||
 ||   W.                                     W.                                     W.                                     W.
 ||---------------------------------------|--------------------------------------|--------------------------------------|---------------------------------------||
 ||---------------------------------------|--------------------------------------|--------------------------------------|---------------------------------------||
 ||o--4L----------------------------------|--2L----------------------------------|--0L----------------------------------|--------------------------------------o|| x2
 ||o--------------------------------------|--------------------------------------|--------------------------------------|--2L----------------------------------o||
 ||---------------------------------------|--------------------------------------|--------------------------------------|---------------------------------------||
 ||---0L----------------------------------|--0L----------------------------------|--1L----------------------------------|--1L-----------------------------------||


    Gtr 1
  
     E  E  E  E  E  E  E  E  E  E  E  E     E  E  E  E  E  E  E  E  E  E  E  E     E  E  E  E  E  E  E  E  E  E  E  E     E  E  E  E  E  E  E  E  E  E  E  E
  |--------------------------------------|--------------------------------------|-----------------0--------------------|-----------------0--------------------|
  |-----------------5--3-----------------|-----------------5--3-----------------|-----------0--------3-----0-----------|-----------0--------3-----0-----------|
  |--4L-------4--2--------2--4-----2-----|--2L-------4--2--------2--4-----2-----|--0L----------2--------2--------2-----|--------------2--------2--------2-----|
  |--2L----2--------------------2--------|--2L----2--------------------2--------|--3L----3--------------------3--------|--2L----3--------------------3--------|
  |-----2-----------------------------2--|-----2-----------------------------2--|-----3-----------------------------3--|-----3-----------------------------3--|
  |--0-----------------------------------|--0-----------------------------------|--1-----------------------------------|--1-----------------------------------|
  |
  | Gtr 2
  |
  |  W.                                     W.                                     W.                                     W.
  |--7L----------------------------------|--5L----------------------------------|--3L----------------------------------|--0L----------------------------------|
  |--0L----------------------------------|--------------------------------------|--------------------------------------|--------------------------------------|
  |--------------------------------------|--------------------------------------|--------------------------------------|--------------------------------------|
  |--------------------------------------|--------------------------------------|--------------------------------------|--------------------------------------|
  |--------------------------------------|--------------------------------------|--------------------------------------|--------------------------------------|
  |--0L----------------------------------|--0L----------------------------------|--1L----------------------------------|--1L----------------------------------|


    Gtr 1
     
     Q     E  E  Q     Q     E  E  Q        Q     E  E  Q     Q     E  E  Q        Q     E  E  Q     Q     E  E  Q        Q     E  E  Q     Q     E  E  Q
  |--5-----5--5--5-----5-----5--5--5-----|--7-----7--7--7-----7-----7--7--7-----|--------------------------------------|--7-----7--7--7-----7-----7--7--7-----|
  |--6-----6--6--6-----6-----6--6--6-----|--5-----5--5--5-----5-----5--5--5-----|--6-----6--6--6-----6-----6--6--6-----|--5-----5--5--5-----5-----5--5--5-----|
  |--7-----7-----7-----7-----7-----7-----|--7-----7-----7-----7-----7-----7-----|--7-----7-----7-----7-----7--7--7-----|--7-----7-----7-----7-----7-----7-----|
  |--------5-----------------------------|--------5-----------------------------|--------5-----------------------------|--------5-----------------------------|
  |--8-----------8-----8-----8-----8-----|--8-----------8-----8-----8-----8-----|--8-----------8-----8-----8-----8-----|--8-----------8-----8-----8-----8-----|
  |--------------------------------------|--------------------------------------|--------------------------------------|--------------------------------------|
  |
  | Gtr 2
  |
  |              W                                E     W                                E     W                                E     W
  |--------------------------------------|--------------------------------------|--------------------------------------|--------------------------------------|
  |--------------------------------------|--------------------------------------|--------------------------------------|--------------------------------------|
  |--------------------------------------|--------------------------------------|--------------------------------------|--------------------------------------|
  |--------------------------------------|--------5-----------------------------|--------5-----------------------------|--------5-----------------------------|
  |--------------------------------------|--------------------------------------|--------------------------------------|--------------------------------------|
  |--------------1L----------------------|--------------1L----------------------|--------------1L----------------------|--------------1L----------------------|


    Gtr 1

     Q     E  E  Q     Q     E  E  Q        Q     E  E  Q     Q     E  E  Q        Q     E  E  Q     Q     E  E  Q        Q     E  E  Q     Q     E  E  Q
  |--------------------------------------|--7-----7--7--7-----7-----7--7--7-----|--------------------------------------|--5-----5--5--5-----5-----5--5--5-----|
  |--6-----6--6--6-----6-----6--6--6-----|--5-----5--5--5-----5-----5--5--5-----|--5-----5--5--5-----5-----5--5--5-----|--6-----6--6--6-----6-----6--6--6-----|
  |--7-----7-----7-----7-----7-----7-----|--7-----7-----7-----7-----7-----7-----|--5-----5-----5-----5-----5-----5-----|--7-----7-----7-----7-----7-----7-----|
  |--------5-----------------------------|--------5-----------------------------|--------------------------------------|--------5-----------------------------|
  |--8-----------8-----8-----8-----8-----|--8-----------8-----8-----8-----8-----|--7-----7-----7-----7-----7-----7-----|--8-----------8-----8-----8-----8-----|
  |--------------------------------------|--------------------------------------|--------------------------------------|--------------------------------------|
  |
  | Gtr 2
  |
  |  W.                                     W.                                     W.                                     W.
  |--------------------------------------|--------------------------------------|--------------------------------------|--------------------------------------|
  |--------------------------------------|--------------------------------------|--------------------------------------|--------------------------------------|
  |--------------------------------------|--------------------------------------|--------------------------------------|--------------------------------------|
  |--------------------------------------|--------------------------------------|--------------------------------------|--------------------------------------|
  |--------------------------------------|--------------------------------------|--------------------------------------|--2L----------------------------------|
  |--1L----------------------------------|--3L----------------------------------|--5L----------------------------------|--------------------------------------|


    Gtr 1

     Q     E  E  Q     Q     E  E  Q        Q     E  E  Q     Q     E  E  Q        Q     E  E  Q     Q     E  E  Q        Q     E  E  Q     Q     E  E  Q
  |--7-----7--7--7-----7-----7--7--7-----|--8-----8--8--8-----8-----8--8--8-----|--5-----5--5--5-----5-----5--5--5-----|--7-----7--7--7-----7-----7--7--7-----|
  |--5-----5--5--5-----5-----5--5--5-----|--5-----5--5--5-----5-----5--5--5-----|--6-----6--6--6-----6-----6--6--6-----|--5-----5--5--5-----5-----5--5--5-----|
  |--7-----7-----7-----7-----7-----7-----|--7-----7-----7-----7-----7-----7-----|--7-----7-----7-----7-----7-----7-----|--7-----7-----7-----7-----7-----7-----|
  |--------5-----------------------------|--------5-----------------------------|--------5-----------------------------|--------5-----------------------------|
  |--8-----------8-----8-----8-----8-----|--8-----------8-----8-----8-----8-----|--8-----------8-----8-----8-----8-----|--8-----------8-----8-----8-----8-----|
  |--------------------------------------|--------------------------------------|--------------------------------------|--------------------------------------|
  |
  | Gtr 2
  |
  |  W.                                     W.                                     W.                                     W.
  |--------------------------------------|--------------------------------------|--------------------------------------|--------------------------------------|
  |--------------------------------------|--------------------------------------|--------------------------------------|--------------------------------------|
  |--------------------------------------|--------------------------------------|--------------------------------------|--------------------------------------|
  |--------------------------------------|--------------------------------------|--------------------------------------|--3L----------------------------------|
  |--3L----------------------------------|--5L----------------------------------|--7L----------------------------------|--------------------------------------|
  |--------------------------------------|--------------------------------------|--------------------------------------|--------------------------------------|
   

    Gtr 1

     E  E  E  E  E  E  E  E  E  E  E  E     E  E  E  E  E  E  E  E  E  E  E  E     E  E  E  E  E  E  E  E  E  E  E  E     E  E  E  E  E  E  E  E  E  E  E  E
  |--------------------------------------|--------------------------------------|-----------------0--------------------|-----------------0--------------------|
  |-----------------5--3-----------------|-----------------5--3-----------------|-----------0--------3-----0-----------|-----------0--------3-----0-----------|
  |-----------4--2--------2--4-----2-----|-----------4--2--------2--4-----2-----|--------------2--------2--------2-----|--------------2--------2--------2-----|
  |--2L----2--------------------2--------|--2L----2--------------------2--------|--------3--------------------3--------|--------3--------------------3--------|
  |-----2-----------------------------2--|-----2-----------------------------2--|-----3-----------------------------3--|-----3-----------------------------3--|
  |--0-----------------------------------|--0-----------------------------------|--1-----------------------------------|--1-----------------------------------|
  |
  | Gtr 2
  |
  |  W.                                     W.                                     W.                                     W.
  |--------------------------------------|--------------------------------------|--------------------------------------|--------------------------------------|
  |--------------------------------------|--------------------------------------|--------------------------------------|--------------------------------------|
  |--------------------------------------|--------------------------------------|--------------------------------------|--------------------------------------|
  |--2L----------------------------------|--2L----------------------------------|--2L----------------------------------|--2L----------------------------------|
  |--------------------------------------|--------------------------------------|--------------------------------------|--------------------------------------|
  |--0L----------------------------------|--0L----------------------------------|--1L----------------------------------|--1L----------------------------------|


    Gtr 1

     E  E  E  E  E  E  E  E  E  E  E  E     E  E  E  E  E  E  E  E  E  E  E  E     E  E  E  E  E  E  E  E  E  E  E  E     E  E  E  E  E  E  E  E  E  E  E  E
  |--------------------------------------|--------------------------------------|-----------------0--------------------|-----------------0--------------------|
  |-----------------5--3-----------------|-----------------5--3-----------------|-----------0--------3-----0-----------|-----------0--------3-----0-----------|
  |-----------4--2--------2--4-----2-----|-----------4--2--------2--4-----2-----|--------------2--------2--------2-----|--------------2--------2--------2-----|
  |--2L----2--------------------2--------|--2L----2--------------------2--------|--------3--------------------3--------|--------3--------------------3--------|
  |-----2-----------------------------2--|-----2-----------------------------2--|-----3-----------------------------3--|-----3-----------------------------3--|
  |--0-----------------------------------|--0-----------------------------------|--1-----------------------------------|--1-----------------------------------|
  |
  | Gtr 2
  |
  |  W.                                     W.                                     W.                                     W.
  |--------------------------------------|--------------------------------------|--------------------------------------|--------------------------------------|
  |--------------------------------------|--------------------------------------|--------------------------------------|--------------------------------------|
  |--4L----------------------------------|--2L----------------------------------|--0L----------------------------------|--------------------------------------|
  |-(2)----------------------------------|--------------------------------------|--------------------------------------|--2L----------------------------------|
  |--------------------------------------|--------------------------------------|-(3)----------------------------------|--------------------------------------|
  |--0L----------------------------------|--0L----------------------------------|--1L----------------------------------|--1L----------------------------------|


    Gtr 1

     E  E  E  E  E  E  E  E  E  E  E  E     E  E  E  E  E  E  E  E  E  E  E  E     E  E  E  E  E  E  E  E  E  E  E  E     E  E  E  E  E  E  E  E  E  E  E  E
  |--------------------------------------|--------------------------------------|-----------------0--------------------|-----------------0--------------------|
  |-----------------5--3-----------------|-----------------5--3-----------------|-----------0--------3-----0-----------|-----------0--------3-----0-----------|
  |-----------4--2--------2--4-----2-----|-----------4--2--------2--4-----2-----|--------------2--------2--------2-----|--------------2--------2--------2-----|
  |--2L----2--------------------2--------|--2L----2--------------------2--------|--------3--------------------3--------|--------3--------------------3--------|
  |-----2-----------------------------2--|-----2-----------------------------2--|-----3-----------------------------3--|-----3-----------------------------3--|
  |--0-----------------------------------|--0-----------------------------------|--1-----------------------------------|--1-----------------------------------|
  |
  | Gtr 2
  |
  |  W.                                     W.                                     W.                                     W.
  |--------------------------------------|--------------------------------------|--------------------------------------|--------------------------------------|
  |--------------------------------------|--------------------------------------|--------------------------------------|--------------------------------------|
  |--4L----------------------------------|--------------------------------------|--0L----------------------------------|--------------------------------------|
  |-(2)----------------------------------|--7L----------------------------------|-(5)----------------------------------|--2L----------------------------------|
  |--------------------------------------|-(5)----------------------------------|-(3)----------------------------------|--------------------------------------|
  |--0L----------------------------------|--0L----------------------------------|--1L----------------------------------|--1L----------------------------------|

 
    Gtr 1

     E  E  E  E  E  E  E  E  E  E  E  E     E  E  E  E  E  E  E  E  E  E  E  E     E  E  E  E  E  E  E  E  E  E  E  E     E  E  E  E  E  E  E  E  E  E  E  E
  |--------------------------------------|--------------------------------------|-----------------0--------------------|-----------------0--------------------|
  |-----------------5--3-----------------|-----------------5--3-----------------|-----------0--------3-----0-----------|-----------0--------3-----0-----------|
  |--4L-------4--2--------2--4-----2-----|--2L----2--4--2--------2--4-----2-----|--0L----------2--------2--------2-----|--------------2--------2--------2-----|
  |--2L----2--------------------2--------|--2L----2--------------------2--------|--3L----3--------------------3--------|--2L----3--------------------3--------|
  |-----2-----------------------------2--|-----2-----------------------------2--|-----3-----------------------------3--|-----3-----------------------------3--|
  |--0-----------------------------------|--0-----------------------------------|--1-----------------------------------|--1-----------------------------------|
  |
  | Gtr 2
  |
  |  W.                                     W.                                     W.                                     W.
  |--7L----------------------------------|--5L----------------------------------|--3L----------------------------------|--0L----------------------------------|
  |--0L----------------------------------|--------------------------------------|--------------------------------------|--------------------------------------|
  |--------------------------------------|--------------------------------------|--------------------------------------|--------------------------------------|
  |--------------------------------------|--------------------------------------|--------------------------------------|--------------------------------------|
  |--------------------------------------|--------------------------------------|--------------------------------------|--------------------------------------|
  |--0L----------------------------------|--0L----------------------------------|--1L----------------------------------|--1L----------------------------------|
  
  
    Gtr 1                                                                              
                                                                                                          (Let last note ring out)
     H           H           H              H           H           H              W                       H              W.
  |--------------------------------------|--------------------------------------|--------------------------------------|--------------------------------------|
  |--------------------------------------|--------------------------------------|--------------------------------------|--------------------------------------|
  |--------------------------------------|--------------------------------------|--------------------------------------|--------------------------------------|
  |--------------0-----------------------|--------------------------------------|--------------------------------------|--------------------------------------|
  |--------------------------3-----------|--2-----------0-----------------------|--------------------------------------|--------------------------------------|
  |--0-----------------------------------|--------------------------3-----------|--1-----------------------0L----------|--0L----------------------------------|
  |
  | Gtr 2
  |
  | W.                                      W.
  |--------------------------------------|--------------------------------------|--------------------------------------|--------------------------------------|
  |--------------------------------------|--------------------------------------|--------------------------------------|--------------------------------------|
  |--------------------------------------|--------------------------------------|--------------------------------------|--------------------------------------|
  |--------------------------------------|--------------------------------------|--------------------------------------|--------------------------------------|
  |--7L----------------------------------|--------------------------------------|--------------------------------------|--------------------------------------|
  |--0L----------------------------------|--0L----------------------------------|--------------------------------------|--------------------------------------|



Duration Legend
---------------
W - whole
H - half
Q - quarter
E - 8th
S - 16th
T - 32nd
X - 64th
. - note dotted
|-n-|  - n-tuplets



Login or Register to remove this ad.

1 comment on A Requiem

Nice!

Seems pretty spot on to me, a bit hard to keep pace at times but a nice addition to game tabs imo.