Ads

Pain (8 String Version) (Bleach) Guitar Tab

Submitted: Jan 07, 2013 by scarecrowlol (Last updated: May 21, 2014)

5
Average: 5 (3 votes)
Download | Listen
Game: Bleach
Composer(s): Yoshiki Muzuo, Ikimono Gakar
Style: Arrangement, Artificial harmonics, Fingerstyle

Click here for a video example.

AutoScroll: Slow | Medium | Fast
Title: Pain
SubTitle: Bleach OST
Artist: Shiro Sagisu
Tabber: Mitch Jackson
Tempo = 75

I decided to put my 8 string to good use, so for those of you who have one too enjoy! :3


     E  E  E  E  E  E  E  E       E  E  E  E  E  E  Q          E  E  E  E  E  E  E  E       E  E  E  E  E  E  Q
E |--------------2--0----------|--------------1-------------|--------------2--0--5--3----|--5-----------1-----2-------|
B |-----------0--------3--0----|--1--------1--------4-------|-----------0----------------|-----------1--------1-------|
G |--------0-------------------|--2-----2--------2--5-------|--------0-------------------|--5-----2--------2--2-------|
D |-----4----------------------|--3--3--------------7-------|-----4----------------------|--3--3----------------------|
A |----------------------------|----------------------------|----------------------------|----------------------------|
E |--0-------------------------|----------------------------|--0-------------------------|----------------------------|
B |----------------------------|----------------------------|----------------------------|----------------------------|
E |--0L------------------------|--L-------------------------|--0L------------------------|--L-------------------------|



     E  E  E  E  E  E  E  E       E  E  E  E  E  E  Q          E  E  E  E  E  E  E  E       E  E  E  E  E  E  Q
  |--------------2--0----------|--------------1-------------|--------------2--0--5--3----|--5-----------1-----2-------|
  |-----------0--------3--0----|--1--------1--------4-------|-----------0----------------|-----------1--------1-------|
  |--------0-------------------|--2-----2--------2--5-------|--------0-------------------|--5-----2--------2--2-------|
  |-----4----------------------|--3--3--------------7-------|-----4----------------------|--3--3----------------------|
  |--2-------------------------|----------------------------|--2-------------------------|----------------------------|
  |--0-------------------------|----------------------------|--0-------------------------|----------------------------|
  |----------------------------|----------------------------|----------------------------|----------------------------|
  |--0-----------0-------------|--0-------------------------|--0-----------0-------------|--0-------------------------|



     E  E  E  E  E  E  E  E       E  E  E  E  H                Q     S S S S S S S S S S S S    W
  |--------------2--------2----|--5--------5--7L------------|--L-----7---5---3---2-----------|----------------------------|
  |-----------3--------0-------|--------3-------------------|----------5---3---1---0-5---3---|----------------------------|
  |--------0--------2----------|-----6----------------------|--------------------------2---0-|----------------------------|
  |-----4----------------------|----------------------------|--------------------------------|--4-------------------------|
  |----------------------------|----------------------------|--------------------------------|----------------------------|
  |--0L------------------------|--L-------------------------|--------------------------------|----------------------------|
  |----------------------------|----------------------------|--------------------------------|----------------------------|
  |----------------------------|----------------------------|--------------------------------|----------------------------|



     S S S S S S H           E       W                            S S S S S S H           E       W
  |--7-5-3---3---0L----------L----|--L-------------------------|-------------------------------|----------------------------|
  |--5-3-1---1--------------------|----------------------------|--0----------------------------|----------------------------|
  |--------------2L----------L----|--L-------------------------|----2-0---0---2L----------L----|--L-------------------------|
  |-------------------------------|----------------------------|--2-0---------2L----------L----|--L-------------------------|
  |--3-2-0---0---3L----------L----|--L-------------------------|--3-0-3---3---3L----------L----|--L-------------------------|
  |--------------1L----------L----|--L-------------------------|------3---3---1L----------L----|--L-------------------------|
  |-------------------------------|----------------------------|--1-0--------------------------|----------------------------|
  |-------------------------------|----------------------------|------5---5---1L----------L----|--L-------------------------|



     E  E  E  E  E  E  E  E       E  E  E  E  E  E  Q          E  E  E  E  E  E  E  E       E  E  E  E  E  E  Q
  |--------------2--0----------|--------------1-------------|--------------2--0--5--3----|--5-----------1-----2-------|
  |-----------0--------3--0----|--1--------1--------4-------|-----------0----------------|-----------1--------1-------|
  |--------0-------------------|--2-----2--------2--5-------|--------0-------------------|--5-----2--------2--2-------|
  |-----4----------------------|--3--3--------------7-------|-----4----------------------|--3--3----------------------|
  |--2-------------------------|----------------------------|--2-------------------------|----------------------------|
  |--0-------------------------|----------------------------|--0-------------------------|----------------------------|
  |----------------------------|----------------------------|----------------------------|----------------------------|
  |--0L------------------------|--L-------------------------|--0L------------------------|--L-------------------------|



     E  E  E  E  E  E  E  E       E  E  E  E  E  E  Q          E  E  E  E  E  E  E  E       E  E  E  E  E  E  Q
  |--------------2--0----------|--------------1-------------|--------------2--0--5--3----|--5-----------1-----2-------|
  |-----------0--------3--0----|--1--------1--------4-------|-----------0----------------|-----------1--------1-------|
  |--------0-------------------|--2-----2--------2--5-------|--------0-------------------|--5-----2--------2--2-------|
  |-----4----------------------|--3--3--------------7-------|-----4----------------------|--3--3----------------------|
  |--2-------------------------|----------------------------|--2-------------------------|----------------------------|
  |--0-------------------------|----------------------------|--0-------------------------|----------------------------|
  |----------------------------|----------------------------|----------------------------|----------------------------|
  |--0-----------0-------------|--0-------------------------|--0-----------0-------------|--0-------------------------|


  BPM = 40
     E  E  E  E  E  Q.            W
  |----------------<2>L--------|--L-------------------------||
  |----------<0><3>------------|----------------------------||
  |-------<0>------------------|----------------------------||
  |----<4>---------------------|----------------------------||
  |--2-------------------------|----------------------------||
  |--0-------------------------|----------------------------||
  |----------------------------|----------------------------||
  |--0-------------------------|----------------------------||

Login or Register to remove this ad.