Ads

Nothing Can Be Explained (Bleach) Guitar Tab

Submitted: Oct 09, 2012 by scarecrowlol

5
Average: 5 (4 votes)
Download | Listen
Game: Bleach
Composer(s): Yoshiki Muzuo, Ikimono Gakar
Style: 2 or more instruments, Arrangement, Fingerstyle

AutoScroll: Slow | Medium | Fast
Title: Nothing Can Be Explained
SubTitle: Bleach: Fade to Black
Artist: Shiro Sagisu
Music: Tabbed by Mitch Jackson
Tempo = 80

This arrangement is based off the Instrumental version on the Bleach movie Fade to Black

3/4

GTR 1

     E  E  E  E  S S S S     E  E  E  E  E  E       E  E  E  E  E  E       E  E  E  E  E  E       E  E  E  E  E  E                                                              
E |----------------0------|----------------------|----------------------|----------------------|----------------------|
B |--10-------------------|----------------------|----------------------|----------------------|-----------0-----0----|
G |--------0---------0----|--------0--------0----|--------0--------0----|--------0-----0-------|--------4-----4-------|
D |-----11-------11----11-|-----11-------11------|-----11-------11------|-----11----11----11---|-----5--------5-------|
A |--9--------9-----------|--9--------9----------|--9--------9----------|--9-----------9-------|--7-------------------|
E |-----------------------|----------------------|----------------------|----------------------|----------------------|

                                                                     
     E  E  E  E  E  E       E  E  E  E  E  E       E  E  E  E  E  E       E  E  E  E  S S S S     E  E  E  E  E  E                                                                     
  |----------------------|----------------------|----------------------|----------------0------|----------------------|
  |-----------0-----0----|-----------0----------|-----------0----------|-----------------------|----------------------|
  |--------4-----4-------|-----6-----------6----|-----6-----------6----|--------0---------0----|--------0--------0----|
  |-----5--------5-------|--------5-----5-------|--------5-----5-------|-----11-------11----11-|-----11-------11------|
  |--7-------------------|--5--------5----------|--5--------5----------|--9--------9-----------|--9--------9----------|
  |----------------------|----------------------|----------------------|-----------------------|----------------------|

                                                                
     E  E  E  E  E  E       E  E  E  E  E  E       E  E  E  E  E  E       E  E  E  E  E  E       E  E  E  E  E  E                                                                              
  |----------------------|----------------------|----------------------|----------------------|----------------------|
  |----------------------|----------------------|-----------0-----0----|-----------0-----0----|-----------0----------|
  |--------0--------0----|--------0-----0-------|--------4-----4-------|--------4-----4-------|-----6-----------6----|
  |-----11-------11------|-----11----11----11---|-----5--------5-------|-----5--------5-------|--------5-----5-------|
  |--9--------9----------|--9-----------9-------|--7-------------------|--7-------------------|--5--------5----------|
  |----------------------|----------------------|----------------------|----------------------|----------------------| 

  
     E  E  E  E  E  E       E  E  E  E  S S S S     E  E  E  E  E  E       E  E  E  E  E  E       E  E  E  E  E  E                                                                             
  |----------------------|----------------0------|----------------------|----------------------|----------------------|
  |-----------0----------|-----------------------|----------------------|----------------------|----------------------|
  |-----6-----------6----|--------0---------0----|--------0--------0----|--------0--------0----|--------0-----0-------|
  |--------5-----5-------|-----11-------11----11-|-----11-------11------|-----11-------11------|-----11----11----11---|
  |--5--------5----------|--9--------9-----------|--9--------9----------|--9--------9----------|--9-----------9-------|
  |----------------------|-----------------------|----------------------|----------------------|----------------------|

                                                                
     E  E  E  E  E  E       E  E  E  E  E  E       E  E  E  E  E  E       E  E  E  E  E  E       E  E  E  E  S S S S                                                                               
  |----------------------|----------------------|----------------------|----------------------|----------------0------|
  |-----------0-----0----|-----------0-----0----|-----------0----------|-----------0----------|-----------------------|
  |--------4-----4-------|--------4-----4-------|-----6-----------6----|-----6-----------6----|--------0---------0----|
  |-----5--------5-------|-----5--------5-------|--------5-----5-------|--------5-----5-------|-----11-------11----11-|
  |--7-------------------|--7-------------------|--5--------5----------|--5--------5----------|--9--------9-----------|
  |----------------------|----------------------|----------------------|----------------------|-----------------------|

                                                                     
     E  E  E  E  E  E       E  E  E  E  E  E       E  E  E  E  E  E       E  E  E  E  E  E       E  E  E  E  E  E                                                                          
  |----------------------|----------------------|----------------------|----------------------|----------------------|
  |----------------------|----------------------|----------------------|-----------0-----0----|-----------0-----0----|
  |--------0--------0----|--------0--------0----|--------0-----0-------|--------4-----4-------|--------4-----4-------|
  |-----11-------11------|-----11-------11------|-----11----11----11---|-----5--------5-------|-----5--------5-------|
  |--9--------9----------|--9--------9----------|--9-----------9-------|--7-------------------|--7-------------------|
  |----------------------|----------------------|----------------------|----------------------|----------------------|

                                                   ^                      ^                      ^                     
     E  E  E  E  E  E       E  E  E  E  E  E       E  E  E  E  E  E       E  E  E  E  E  E       E  E  E  E  E  E                                                                              
  |----------------------|----------------------|--12------------------|--12------------------|--12------------------|
  |-----------0----------|-----------0----------|--12-------12---------|--12-------12---------|--12-------12---------|
  |-----6-----------6----|-----6-----------6----|--------9-----9-------|--------9-----9-------|--------9-----9-------|
  |--------5-----5-------|--------5-----5-------|-----9-----------9----|-----9-----------9----|-----9-----------9----|
  |--5--------5----------|--5--------5----------|----------------------|----------------------|----------------------|
  |----------------------|----------------------|----------------------|----------------------|----------------------|

     ^
     E  E  E  E  E  E       E  E  E  E  S S S S     E  E  E  E  E  E       E  E  E  E  E  E       E  E  E  E  E  E                                                                       
  |--12------------------|----------------0------|----------------------|----------------------|----------------------|
  |--12-------12---------|-----------------------|----------------------|----------------------|----------------------|
  |--------9-----9-------|--------0---------0----|--------0--------0----|--------0--------0----|--------0-----0-------|
  |-----9-----------9----|-----11-------11----11-|-----11-------11------|-----11-------11------|-----11----11----11---|
  |----------------------|--9--------9-----------|--9--------9----------|--9--------9----------|--9-----------9-------|
  |----------------------|-----------------------|----------------------|----------------------|----------------------|

 
     E  E  E  E  E  E       E  E  E  E  E  E       E  E  E  E  E  E       E  E  E  E  E  E       E  E  E  E  S S S S                                                                            
  |----------------------|----------------------|----------------------|----------------------|----------------0------|
  |-----------0-----0----|-----------0-----0----|-----------0----------|-----------0----------|-----------------------|
  |--------4-----4-------|--------4-----4-------|-----6-----------6----|-----6-----------6----|--------0---------0----|
  |-----5--------5-------|-----5--------5-------|--------5-----5-------|--------5-----5-------|-----11-------11----11-|
  |--7-------------------|--7-------------------|--5--------5----------|--5--------5----------|--9--------9-----------|
  |----------------------|----------------------|----------------------|----------------------|-----------------------|
                                                                

     E  E  E  E  E  E       E  E  E  E  E  E       E  E  E  E  E  E       E  E  E  E  E  E       E  E  E  E  E  E                                                                              
  |----------------------|----------------------|----------------------|----------------------|----------------------|
  |----------------------|----------------------|----------------------|-----------0-----0----|-----------0-----0----|
  |--------0--------0----|--------0--------0----|--------0-----0-------|--------4-----4-------|--------4-----4-------|
  |-----11-------11------|-----11-------11------|-----11----11----11---|-----5--------5-------|-----5--------5-------|
  |--9--------9----------|--9--------9----------|--9-----------9-------|--7-------------------|--7-------------------|
  |----------------------|----------------------|----------------------|----------------------|----------------------|

       
     E  E  E  E  E  E       E  E  E  E  E  E       H           E  E       E  Q.       Q          E  E  E  E  E  E                                                                       
  |----------------------|----------------------|--------------14-12---|--10-9L-------L-------|--14-12-10-9----------|
  |-----------0----------|-----------0----------|----------------------|----------------------|--------------12-10---|
  |-----6-----------6----|-----6-----------6----|----------------------|----------------------|----------------------|
  |--------5-----5-------|--------5-----5-------|----------------------|----------------------|----------------------|
  |--5--------5----------|--5--------5----------|----------------------|----------------------|----------------------|
  |----------------------|----------------------|----------------------|----------------------|----------------------|


     E  E  E  E  E  E       E  E  E  E  E  E       E  E  E  E  E  E       E  E  E  E  Q          H.                                                                 
  |-----------14-12-10---|--9--------------17---|--15-14-12------------|----------------------|----------------------|
  |--8--7----------------|-----12-10-8----------|-----------15-14-12---|--10------------------|----------------------|
  |--------9-------------|--------------11------|----------------------|-----12-11-9--7L------|--L-------------------|
  |----------------------|----------------------|----------------------|----------------------|----------------------|
  |----------------------|----------------------|----------------------|----------------------|----------------------|
  |----------------------|----------------------|----------------------|----------------------|----------------------|

     ^                      ^                      ^                      ^                     ^   
     E  E  E  E  E  E       E  E  E  E  E  E       E  E  E  E  E  E       E  E  E  E  E  E       E  E  E  E  E  E                                                                                              
  |--12------------------|--12------------------|--12------------------|--12------------------|--12------------------|
  |--12-------12---------|--12-------12---------|--12-------12---------|--12-------12---------|--12-------12---------|
  |--------9-----9-------|--------9-----9-------|--------9-----9-------|--------9-----9-------|--------9-----9-------|
  |-----9-----------9----|-----9-----------9----|-----9-----------9----|-----9-----------9----|-----9-----------9----|
  |----------------------|----------------------|----------------------|----------------------|----------------------|
  |----------------------|----------------------|----------------------|----------------------|----------------------|

     ^                      ^                     ^ 
     E  E  E  E  E  E       E  E  E  E  E  E       E  E  E  E  E  E       E  E  E  E  S S S S     E  E  E  E  E  E                                      
  |--12------------------|--12------------------|--12------------------|----------------0------|----------------------|
  |--12-------12---------|--12-------12---------|--12-------12---------|-----------------------|----------------------|
  |--------9-----9-------|--------9-----9-------|--------9-----9-------|--------0---------0----|--------0--------0----|
  |-----9-----------9----|-----9-----------9----|-----9-----------9----|-----11-------11----11-|-----11-------11------|
  |----------------------|----------------------|----------------------|--9--------9-----------|--9--------9----------|
  |----------------------|----------------------|----------------------|-----------------------|----------------------|

   
     E  E  E  E  E  E       E  E  E  E  E  E       E  E  E  E  E  E       E  E  E  E  E  E       E  E  E  E  E  E                                                                                       
  |----------------------|----------------------|----------------------|----------------------|----------------------|
  |----------------------|----------------------|-----------0-----0----|-----------0-----0----|-----------0----------|
  |--------0--------0----|--------0-----0-------|--------4-----4-------|--------4-----4-------|-----6-----------6----|
  |-----11-------11------|-----11----11----11---|-----5--------5-------|-----5--------5-------|--------5-----5-------|
  |--9--------9----------|--9-----------9-------|--7-------------------|--7-------------------|--5--------5----------|
  |----------------------|----------------------|----------------------|----------------------|----------------------|


     E  E  E  E  E  E       E  E  E  E  S S S S     E  E  E  E  E  E       E  E  E  E  E  E       E  E  E  E  E  E                                                                                    
  |----------------------|----------------0------|----------------------|----------------------|----------------------|
  |-----------0----------|-----------------------|----------------------|----------------------|----------------------|
  |-----6-----------6----|--------0---------0----|--------0--------0----|--------0--------0----|--------0-----0-------|
  |--------5-----5-------|-----11-------11----11-|-----11-------11------|-----11-------11------|-----11----11----11---|
  |--5--------5----------|--9--------9-----------|--9--------9----------|--9--------9----------|--9-----------9-------|
  |----------------------|-----------------------|----------------------|----------------------|----------------------|

                                                                                                 ^
     E  E  E  E  E  E       E  E  E  E  E  E       E  E  E  E  E  E       E  E  E  E  E  E       H.                                                                                      
  |----------------------|----------------------|----------------------|----------------------|--12------------------||
  |-----------0-----0----|-----------0-----0----|-----------0----------|-----------0----------|--10------------------||
  |--------4-----4-------|--------4-----4-------|-----6-----------6----|-----6-----------6----|----------------------||
  |-----5--------5-------|-----5--------5-------|--------5-----5-------|--------5-----5-------|--11------------------||
  |--7-------------------|--7-------------------|--5--------5----------|--5--------5----------|--9-------------------||
  |----------------------|----------------------|----------------------|----------------------|----------------------||



GTR II - Voice


E |----------------------|----------------------|----------------------|----------------------|----------------------|
B |----------------------|----------------------|----------------------|----------------------|----------------------|
G |----------------------|----------------------|----------------------|----------------------|----------------------|
D |----------------------|----------------------|----------------------|----------------------|----------------------|
A |----------------------|----------------------|----------------------|----------------------|----------------------|
E |----------------------|----------------------|----------------------|----------------------|----------------------|


                                                                          H            E  S S    H           S S S S 
  |----------------------|----------------------|----------------------|----------------------|----------------------|
  |----------------------|----------------------|----------------------|----------------------|----------------------|
  |----------------------|----------------------|----------------------|----------------------|----------------------|
  |----------------------|----------------------|----------------------|----------------------|----------------------|
  |----------------------|----------------------|----------------------|----------------------|--0L----------L-------|
  |----------------------|----------------------|----------------------|--2L-----------L--0-2-|----------------3-2-0-|


     H            E  S S    H           S S S S    H            E  S S    H           S S S S    H.                                      
  |----------------------|----------------------|----------------------|----------------------|----------------------|
  |----------------------|----------------------|----------------------|----------------------|----------------------|
  |----------------------|----------------------|----------------------|----------------------|----------------------|
  |----------------------|----------------------|----------------------|----------------------|----------------------|
  |----------------------|--0L----------L-------|----------------------|--0L----------L-------|----------------------|
  |--2L-----------L--0-2-|----------------3-2-0-|--2L-----------L--0-2-|----------------3-2-0-|--2L------------------|


     H.                     H            E  S S    H           S S S S    H            E  S S    H           S S S S                                                     
  |----------------------|----------------------|----------------------|----------------------|----------------------|
  |----------------------|----------------------|----------------------|----------------------|----------------------|
  |----------------------|----------------------|--2L----------L-0-----|----------------------|--2L----------L-0-----|
  |----------------------|--4L-----------L--2-4-|------------------4-2-|--4L-----------L--2-4-|------------------4-2-|
  |----------------------|----------------------|----------------------|----------------------|----------------------|
  |--L-------------------|----------------------|----------------------|----------------------|----------------------|


     H            E  S S    H           S S S S    H.                     H.                     H            E  S S        
  |----------------------|----------------------|----------------------|----------------------|----------------------|     
  |----------------------|----------------------|----------------------|----------------------|--7L-----------L--5-7-|                         
  |----------------------|--2L----------L-0-----|----------------------|----------------------|----------------------|
  |--4L-----------L--2-4-|------------------4-2-|--4L------------------|--L-------------------|----------------------|
  |----------------------|----------------------|----------------------|----------------------|----------------------|
  |----------------------|----------------------|----------------------|----------------------|----------------------|   


     H           S S S S    H            E  S S    H           S S S S    H            E  S S    H           S S S S                                     
  |--5L----------5-------|----------------------|--5L----------5-------|----------------------|--5L----------5-------|
  |----------------8-7-5-|--7L-----------L--5-7-|----------------8-7-5-|--7L-----------L--5-7-|----------------8-7-5-|
  |----------------------|----------------------|----------------------|----------------------|----------------------|
  |----------------------|----------------------|----------------------|----------------------|----------------------|
  |----------------------|----------------------|----------------------|----------------------|----------------------|
  |----------------------|----------------------|----------------------|----------------------|----------------------|


     H.                     H.                     Q.       E  E  E       E  E  E  E  E  E       E  E  E  Q.
  |----------------------|----------------------|----------------------|----------------------|--5--5--5-------------|                                        
  |--7L------------------|--L-------------------|-----------5--5--5----|--7--7--7--8--8--8----|-----------8----------|
  |----------------------|----------------------|----------------------|----------------------|----------------------|
  |----------------------|----------------------|----------------------|----------------------|----------------------|
  |----------------------|----------------------|----------------------|----------------------|----------------------|
  |----------------------|----------------------|----------------------|----------------------|----------------------|
                                                                                
          |-3-|     |-3-|
     Q    S S S E.  T T T E     H            E  S S    H           S S S S    H            E  S S    H           S S S S                                                                                                                         
  |--------------------------|----------------------|----------------------|----------------------|----------------------|
  |--7----7-8-7s5---2-5-2-0--|--2L-----------L------|----------------------|----------------------|----------------------|
  |--------------------------|----------------------|----------------------|----------------------|----------------------|
  |--------------------------|----------------------|----------------------|----------------------|----------------------|
  |--------------------------|----------------------|--0L----------L-------|----------------------|--0L----------L-------|
  |--------------------------|--2L-----------L--0-2-|----------------3-2-0-|--2L-----------L--0-2-|----------------3-2-0-|


     H            E  S S    H           S S S S    H.                     H.                     H            E  S S   
  |----------------------|----------------------|----------------------|----------------------|----------------------|
  |----------------------|----------------------|----------------------|----------------------|----------------------|   
  |----------------------|----------------------|----------------------|----------------------|----------------------|
  |----------------------|----------------------|----------------------|----------------------|--4L-----------L--2-4-|
  |----------------------|--0L----------L-------|----------------------|----------------------|----------------------|
  |--2L-----------L--0-2-|----------------3-2-0-|--2L------------------|--L-------------------|----------------------|

                                     
     H           S S S S    H            E  S S    H           S S S S    H            E  S S    H           S S S S
  |----------------------|----------------------|----------------------|----------------------|----------------------|
  |----------------------|----------------------|----------------------|----------------------|----------------------|
  |--2L----------L-0-----|----------------------|--2L----------L-0-----|----------------------|--2L----------L-0-----|
  |------------------4-2-|--4L-----------L--2-4-|------------------4-2-|--4L-----------L--2-4-|------------------4-2-|
  |----------------------|----------------------|----------------------|----------------------|----------------------|
  |----------------------|----------------------|----------------------|----------------------|----------------------|


     H.                     H.                     E  E  E  Q.            Q     E  E  E  E       E  E  E  E  E  E                                                                       
  |----------------------|----------------------|--7--5----------------|----------------------|----------------------|
  |----------------------|----------------------|--------8--7L---------|--7-------------------|----------------------|
  |----------------------|----------------------|----------------------|--------4--2--0-------|--6--4--2--2--0--0----|
  |--4L------------------|--L-------------------|----------------------|-----------------2----|----------------------|
  |----------------------|----------------------|----------------------|----------------------|----------------------|
  |----------------------|----------------------|----------------------|----------------------|----------------------|

                                                   >                 
     Q.       E  E  E       E  E  E  E  E  E       E  E  E  E  E  E       E  E  E  E  Q          H.                                                  
  |----------------------|----------------------|----------------------|----------------------|----------------------|
  |-----------10-8--7----|--5--------------12---|--10-8--7-------------|----------------------|----------------------|
  |--0-------------------|-----7--6--4----------|-----------9--7--6----|--4-------------------|----------------------|
  |----------------------|--------------7-------|----------------------|-----7--5--4--2L------|--L-------------------|
  |----------------------|----------------------|----------------------|----------------------|----------------------|
  |----------------------|----------------------|----------------------|----------------------|----------------------|

                                                                               |-3-|
     Q.       E  E  E       E  E  E  E  E  E       E  E  E  Q.            Q    S S S Q.          Q.       E  E  E                                    
  |----------------------|----------------------|--5--5--5-------------|----------------------|----------------------|
  |-----------5--5--5----|--7--7--7--8--8--8----|-----------8----------|--7----7-8-7s5--------|--7--------8--8--8----|
  |----------------------|----------------------|----------------------|----------------------|----------------------|
  |----------------------|----------------------|----------------------|----------------------|----------------------|
  |----------------------|----------------------|----------------------|----------------------|----------------------|
  |----------------------|----------------------|----------------------|----------------------|----------------------|

                                                        |-3-|     |-3-|
     E  E  E  E  E  E       E  E  E  Q.            Q    S S S E.  T T T E     H            E  S S    H           S S S S                                                                                                                         
  |--5--5--5--7--7--7----|--5--5--5-------------|--------------------------|----------------------|----------------------|
  |----------------------|-----------8----------|--7----7-8-7s5---2-5-2-0--|--2L-----------L------|----------------------|
  |----------------------|----------------------|--------------------------|----------------------|----------------------|
  |----------------------|----------------------|--------------------------|----------------------|----------------------|
  |----------------------|----------------------|--------------------------|----------------------|--0L----------L-------|
  |----------------------|----------------------|--------------------------|--2L-----------L--0-2-|----------------3-2-0-|


     H            E  S S    H           S S S S    H            E  S S    H           S S S S    H.
  |----------------------|----------------------|----------------------|----------------------|----------------------|
  |----------------------|----------------------|----------------------|----------------------|----------------------|   
  |----------------------|----------------------|----------------------|----------------------|----------------------|
  |----------------------|----------------------|----------------------|----------------------|----------------------|
  |----------------------|--0L----------L-------|----------------------|--0L----------L-------|----------------------|
  |--2L-----------L--0-2-|----------------3-2-0-|--2L-----------L--0-2-|----------------3-2-0-|--2L------------------|

                                     
     H.                     H            E  S S    H           S S S S    H            E  S S    H           S S S S
  |----------------------|----------------------|----------------------|----------------------|----------------------|
  |----------------------|----------------------|----------------------|----------------------|----------------------|
  |----------------------|----------------------|--2L----------L-0-----|----------------------|--2L----------L-0-----|
  |----------------------|--4L-----------L--2-4-|------------------4-2-|--4L-----------L--2-4-|------------------4-2-|
  |----------------------|----------------------|----------------------|----------------------|----------------------|
  |--L-------------------|----------------------|----------------------|----------------------|----------------------|
                                                           

                                                                                                 >
     H            E  S S    H           S S S S    H.                     H.                     H.                                                     
  |----------------------|----------------------|----------------------|----------------------|----------------------||
  |----------------------|----------------------|----------------------|----------------------|----------------------||
  |----------------------|--2L----------L-0-----|----------------------|----------------------|----------------------||
  |--4L-----------L--2-4-|------------------4-2-|--4L------------------|--L-------------------|--4-------------------||
  |----------------------|----------------------|----------------------|----------------------|----------------------||
  |----------------------|----------------------|----------------------|----------------------|--2-------------------||



                         






Login or Register to remove this ad.