Ads

Never Meant to Belong (Bleach) Guitar Tab

Submitted: Sep 15, 2012 by Sevensquared (Last updated: Sep 16, 2012)

4.25
Average: 4.3 (4 votes)
Download | Listen
Game: Bleach
Composer(s): Yoshiki Muzuo, Ikimono Gakar
Style: Transcription

AutoScroll: Slow | Medium | Fast
Bleach:Never meant to belong by Sevensquared
Don't forget to tune your guitar

   Q Q Q S S S S      W     Q Q Q S S S S      W        W      S S S Q. S Q.  S Q. E Q E.
E5|------------0-|---------|------------0-|---------|--------|-----3-0----0-|---0----0-1-|
B4|--------0-1---|----3----|--------0-1---|----3----|--------|-0-1------4---|-4----4-----|
G4|--------------|---------|--------------|---------|--------|--------------|------------|
D4|--------------|---------|--------------|---------|--------|--------------|------------|
E3|--------------|---------|--------------|---------|--------|--------------|------------|
C3|--------------|---------|--------------|---------|--------|--------------|------------|

    Q E E E. E. E     E. E. Q S S S S E   Q E Q. E E    S E. E E. E.E  E   Q E  Q.  E  E
E5|-0---------------|-------------------|-------------|------------------|---------------|
B4|---3-1-0---------|-------------------|-------------|---1--0-----------|---------------|
G4|----------2--0---|-------------------|-------------|--------1--2------|---------------|
D4|-----------------|-4--3--2-------0-2-|-L-1-2--1-2--|-L----------------|---------------|
E3|-----------------|-----------5-7-----|-------------|-------------8-10-|-L-8--10-12-10-|
C3|-----------------|---------4---------|-------------|---------------11-|-L-10-11-12-11-|

    E E. Q E. E. S   E S E. S Q. E.   Q.. S. S. S. S. S. S.  E S S H.
E5|----------------|----------------|----------------------|---------|
B4|----------------|----------------|-----------1--0-----0-|---------|
G4|----------------|----------------|-----------------3----|---------|
D4|--------2--0----|----------------|----------------------|---------|
E3|-L-1----------8-|-7-5-7--8-7--5--|-7---5--7-------------|-7-8p7-7-|
C3|-L-2------------|----------------|----------------------|---------|
Login or Register to remove this ad.

9 comments on Never Meant to Belong

Great tune but difficult to

Great tune but difficult to tab. I know coz I am trying actually T_T

Thanks, the actual song is an

Thanks, the actual song is an octave higher, but i find it hard to play on high frets, specially on a classical guitar.

Keep trying :D

what do the numbers near the

what do the numbers near the tuning mean?

That tells you the octave.

That tells you the octave. Middle C is C4 and the next C up is C5. Everything in between those two notes is a 4. Actually he wrote the second string as B5 when it should be B4.

Thank you for pointing out

Thank you for pointing out the mistake, do you know how i can edit the tab?

I updated it

I updated it

thanks

thanks

Tuning

5

IM kinda confused of how to tune it rather what is the tuning? Please I really want to be able to play this, im a huge fan of Bleach.

Start with standard

  1. Start with standard tuning.
  2. The four highest (thinnest) strings are the same as standard tuning. Leave those strings alone.
  3. Tune your 5th string (the second thickest string) down to E, so it sounds the same as the 6th string.
  4. Tune your 6th string (the thickest string) down to C.
  5. Check the tuning on all six strings. The tension will be way different now, so it's likely that all the strings will be slightly out of tune.

You're tuning those two strings down really far—five semitones for the 5th string and four semitones for the 6th string.