Login or Register to remove this ad.

Houkiboshi (Bleach) Guitar Tab

Submitted: Aug 09, 2017 by MechaKrauser

5
Average: 5 (4 votes)
Download | Listen
Game: Bleach
Composer(s): Yoshiki Muzuo, Ikimono Gakar
Style: Arrangement, Fingerstyle

AutoScroll: Slow | Medium | Fast
Houkiboshi
from Bleach
performed by Younha
music by Nao Tanaka
words by Ema Sato
tab by MechaKrauser

E-string tuned down half-step, capo 2
4/4 time, 152bpm


  [Intro]

       E  E  E  E  E  E  E  E     E  E  E  E  E  E  E  E     E  E  E  E  E  E  E  E   
E ||---0--0--0--0--0--0--0--0--|--------------------------|-----------0--0--0--3--3--|
B ||---5--5--5--5--5--5--5--5--|--3--3--3--6--6--6--6--6--|--1--1--1--1--1--1--1--1--|
G ||*--5--5--5--5--5--5--5--5--|--0--0--0--0--0--0--0--0--|--2--2--2--2--2--2--2--2--|
D ||*--5--5--5--5--5--5--5--5--|--0--0--0--0--0--0--0--0--|--2--2--2--2--2--2--2--2--|
A ||---3--3--3--3--3--3--3--3--|--x--x--x--x--x--x--x--x--|--0--0--0--0--0--0--0--0--|
D#||---------------------------|--4--4--4--4--4--4--4--4--|--------------------------|


                                                     [Verse 1]
 /1st Ending                /2nd Ending
 
  E  E  E  E  E  E  E  E       E  E  E  E  Q.     E     E  E  E  E  E   E  E  E   
--3--3--3--3--3--3--3--3---||--3--3--3--3--3---------|--0-----0------------0-----|
--1--1--1--1--1--1--1--1---||--1--1--1--1--1---------|--------------1h--3-----3--|
--x--x--x--x--x--x--x--x--*||--x--x--x--x--x---------|-----0-----0---------------|
--3--3--3--3--3--3--3--3--*||--3--3--3--3--3---------|---------------------------|
--x--x--x--x--x--x--x--x---||--x--x--x--x--x---------|--3------------------------|
--2--2--2--2--2--2--2--2---||--2--2--2--2--2------2--|---------------------------|



  E  E  E  E  E  E  E  E     E  E  E  E  E  E  E  E     E  E  E  E  E  E  E  E   
-----3--------------------|-----------------------0--|-----1--------------------|
-----------3-----0--------|--------1--------0--1-----|-----------3-----0-----1--|
--------------0--------5--|--------------2-----------|--------------------------|
--------0-----------0-----|-----2-----2--------------|--------3-----3-----3-----|
--------------------------|--0-----------------------|--------------------------|
--4-----------------------|--------------------------|--2-----------------------|



  E  E  E  E  E   E  E  E     E  E  E  E  E  E  E  E     E  E  E  E  E  E  E  E   
--------0------------0-----|-----3--------------------|-----------------------1--|
--------------1h--3-----3--|-----------3-----0--------|--------1--------0--1-----|
-----0-----0---------------|--------------0--------5--|--------------2-----------|
---------------------------|--------0-----------0-----|-----2-----2--------------|
--3------------------------|--------------------------|--0-----------------------|
---------------------------|--4-----------------------|--------------------------|


  E  E  E  E  E  E  Q       E  E  E  E  E   E  E  E     E  E  E  E  E  E  E  E   
-----0--------1--0-------|--0-----0------------0-----|-----3--------------------|
-----------1-------------|--------------1h--3-----3--|-----------3-----0--------|
-------------------------|-----0-----0---------------|-----------------------5--|
--------3----------------|---------------------------|--------0-----------0-----|
-------------------------|--3-----------3------------|--------------------------|
--2--------------2-------|---------------------------|--4-----------4-----------|


  E  E  E  E  E  E  E  E     E  E  E  E  E  E  E  E     E  E  E  E  E   E  E  E   
-----------------------0--|-----1--------------------|--------0------------0-----|
--------1--------0--1-----|-----------3-----0-----1--|--------------1h--3-----3--|
--------------2-----------|--------------------------|-----0-----0---------------|
-----2-----2--------------|--------------------------|---------------------------|
--0-----------0-----------|--------3-----------3-----|--3-----------3------------|
--------------------------|--2-----------2-----------|---------------------------|


  E  E  E  E  E  E  E  E     E  E  E  E  E  E  E  E     E  E  E  E  E  E  E  E   
-----3--------------------|-----------------------1--|-----0--------1--0--------|
-----------3-----0--------|--------1--------0--1-----|-----------1-----------1--|
-----------------------5--|--------------2-----------|--------------------------|
--------0-----------0-----|-----2-----2--------------|--------------------------|
--------------------------|--0-----------0-----------|--------3-----------3-----|
--4-----------4-----------|--------------------------|--2-----------2--------2--|


                          [Chorus]

  E  E  E  E  E  E  E  E     H        E  E  E  E     H        E  E  E  E     Q.     E  E  E  E  E   
-----1-----0-----------3--|--L--------------5--3--|--L--------------5--3--|--L---------3--3--3--3--|
--L--------------0-----5--|--L-----------------3--|--L--------------------|------------------------|
--------------2-----5-----|-----------------------|--------------------5--|--L---------------------|
--------------------------|--------------5--------|-----------------------|------------------------|
--------------------------|--3--------3-----------|--------------5--------|--0------0--0-----------|
--L-----2-----------------|-----------------------|--4--------4-----------|------------------------|


  E.  E.  E  E.   E.  E     H        E  E  E  E     Q    E  E  E  E  E  E     E.  E.  E  Q.     E   
--8---7------8S---7---3--|--L-----------3--3--3--|--3-------0-----0--------|--0--------------------|
--6-------8--6--------5--|--L--------------------|-------6--------------6--|------3----------------|
-------------------------|-----------------------|-------------------------|----------5------------|
-------------5-----------|-----------------------|-------------------------|-----------------------|
--8----------------------|--3--------3-----------|-------------------------|--0----------0------0--|
-------------------------|-----------------------|--4----------4-----4-----|-----------------------|


  E  E  E  E  Q    E  E     H        E  E  E  E     H        E  E  E  E     Q.     E  E  E  E  E   
--1--0--L-------------3--|--L--------------5--3--|--L-----------3--5--3--|--L------------3--3--3--|
----------------------5--|--L-----------------3--|--L--------------------|------------------------|
-----------5-------5-----|-----------------------|--------------------5--|--L---------------------|
-------------------------|--------------5--------|-----------------------|------------------------|
-------------------------|--3--------3-----------|-----------------------|--0------0--0-----------|
--2-----------4----------|-----------------------|--4--------4-----------|------------------------|


  E.  E.  E  E.   E.  E     H        E  E  E  E     Q    E  E  E  E  E  E     E.  E.  E  Q.     E   
--8---7------8S---7---3--|--L-----------3--3--3--|--3-------0-----0--------|--0--------------------|
--6-------8--6--------5--|--L--------------------|-------6--------------6--|------3----------------|
-------------------------|-----------------------|-------------------------|----------5------------|
-------------5-----------|-----------------------|-------------------------|-----------------------|
--8----------------------|--3--------3-----------|-------------------------|--0----------0------0--|
-------------------------|-----------------------|--4----------4-----4-----|-----------------------|


                                                     [Verse 2]

  E  E  E  E  E  E  E  E     E  E  E  E  E  E  E  E     E  E  E  E  E   E  E  E   
--1--0--L-----------------|-----------0--L-----------|--0-----0------------0-----|
--------------------3-----|--------1--------1--------|--------------1h--3-----3--|
-----------5-----5-----5--|-----0--------------0-----|-----0-----0---------------|
--------------------------|--------------------------|---------------------------|
--------------------------|--3-----------------------|--3------------------------|
--2-----------4-----------|--------------------------|---------------------------|


  M                                                                              
  E  E  E  E  E  E  E  E     E  E  E  E  E  E  E  E     E  E  E  E  E  E  E  E   
-----3--------------------|-----------------------0--|-----1--------------------|
-----------3-----0--------|--------1--------0--1-----|-----------3-----0-----1--|
--------------0--------5--|--------------2-----------|--------------------------|
--------0-----------0-----|-----2-----2--------------|--------3-----3-----3-----|
--------------------------|--0-----------------------|--------------------------|
--4-----------------------|--------------------------|--2-----------------------|


  E  E  E  E  E   E  E  E     E  E  E  E  E  E  E  E     E  E  E  E  E  E  E  E   
--------0------------0-----|-----3--------------------|-----------------------1--|
--------------1h--3-----3--|-----------3-----0--------|--------1--------0--1-----|
-----0-----0---------------|--------------0--------5--|--------------2-----------|
---------------------------|--------0-----------0-----|-----2-----2--------------|
--3------------------------|--------------------------|--0-----------------------|
---------------------------|--4-----------------------|--------------------------|


  E  E  E  E  E  E  Q       E  E  E  E  E   E  E  E     E  E  E  E  E  E  E  E   
-----0--------1--0-------|--0-----0------------0-----|-----3--------------------|
-----------1-------------|--------------1h--3-----3--|-----------3-----0--------|
-------------------------|-----0-----0---------------|-----------------------5--|
--------3----------------|---------------------------|--------0-----------0-----|
-------------------------|--3-----------3------------|--------------------------|
--2--------------2-------|---------------------------|--4-----------4-----------|


  E  E  E  E  E  E  E  E     E  E  E  E  E  E  E  E     E  E  E  E  E   E  E  E   
-----------------------0--|-----1--------------------|--------0------------0-----|
--------1--------0--1-----|-----------3-----0-----1--|--------------1h--3-----3--|
--------------2-----------|--------------------------|-----0-----0---------------|
-----2-----2--------------|--------------------------|---------------------------|
--0-----------0-----------|--------3-----------3-----|--3-----------3------------|
--------------------------|--2-----------2-----------|---------------------------|


  E  E  E  E  E  E  E  E     E  E  E  E  E  E  E  E     E  E  E  E  E  E  E  E   
-----3--------------------|-----------------------1--|-----0--------1--0--------|
-----------3-----0--------|--------1--------0--1-----|-----------1-----------1--|
-----------------------5--|--------------2-----------|--------------------------|
--------0-----------0-----|-----2-----2--------------|--------------------------|
--------------------------|--0-----------0-----------|--------3-----------3-----|
--4-----------4-----------|--------------------------|--2-----------2--------2--|


                          [Chorus 2]

  E  E  E  E  E  E  E  E     H        E  E  E  E     H        E  E  E  E     Q.     E  E  E  E  E   
-----1-----0-----------3--|--L--------------5--3--|--L--------------5--3--|--L---------3--3--3--3--|
--L--------------0-----5--|--L-----------------3--|--L--------------------|------------------------|
--------------2-----5-----|-----------------------|--------------------5--|--L---------------------|
--------------------------|--------------5--------|-----------------------|------------------------|
--------------------------|--3--------3-----------|--------------5--------|--0------0--0-----------|
--L-----2-----------------|-----------------------|--4--------4-----------|------------------------|


  E.  E.  E  E.   E.  E     H        E  E  E  E     Q    E  E  E  E  E  E     E.  E.  E  Q.     E   
--8---7------8S---7---3--|--L-----------3--3--3--|--3-------0-----0--------|--0--------------------|
--6-------8--6--------5--|--L--------------------|-------6--------------6--|------3----------------|
-------------------------|-----------------------|-------------------------|----------5------------|
-------------5-----------|-----------------------|-------------------------|-----------------------|
--8----------------------|--3--------3-----------|-------------------------|--0----------0------0--|
-------------------------|-----------------------|--4----------4-----4-----|-----------------------|


  E  E  E  E  Q    E  E     H        E  E  E  E     H        E  E  E  E     Q.     E  E  E  E  E   
--1--0--L-------------3--|--L--------------5--3--|--L-----------3--5--3--|--L------------3--3--3--|
----------------------5--|--L-----------------3--|--L--------------------|------------------------|
-----------5-------5-----|-----------------------|--------------------5--|--L---------------------|
-------------------------|--------------5--------|-----------------------|------------------------|
-------------------------|--3--------3-----------|-----------------------|--0------0--0-----------|
--2-----------4----------|-----------------------|--4--------4-----------|------------------------|


  E.  E.  E  E.   E.  E     H        E  E  E  E     Q    E  E  E  E  E  E     E.  E.  E  Q.     E   
--8---7------8S---7---3--|--L-----------3--3--3--|--3-------0-----0--------|--0--------------------|
--6-------8--6--------5--|--L--------------------|-------6--------------6--|------3----------------|
-------------------------|-----------------------|-------------------------|----------5------------|
-------------5-----------|-----------------------|-------------------------|-----------------------|
--8----------------------|--3--------3-----------|-------------------------|--0----------0------0--|
-------------------------|-----------------------|--4----------4-----4-----|-----------------------|


                           [Bridge]

                               >  >                       >  >                     
  E  E  E  E  E  E  E  E       E  E  E  E  E  E  E  E     E  E  E  E  E  E  E  E   
--1--0--L-----------------||---------------------------|--------------------------|
--------------------3-----||---------------------------|-----------5--5--x--x--x--|
-----------5-----5-----5--||*--5--5--5--4--4--5--5--5--|--5--5--5--x--x--4--4--5--|
--------------------------||*--5--5--5--5--5--5--5--5--|--x--x--x--5--5--5--5--5--|
--------------------------||---3--3--x--x--x--x--x--x--|--5--5--x-----------------|
--2-----------4-----------||---------------------------|--4--4--------------------|


                          /1st Ending                  /2nd Ending
  >  >        >  >           >  >        >     >          >  >        >  >  >  >   
  E  E  E  E  E  E  E  E     E  E  E  E  E  E  E  E       E  E  E  E  E  E  E  E   
--------------------------|-----------0--0------------||--3--3--3--3--3--3--3--3--|
--1--1--1--0--0--1--1--1--|--1--1--1--1--1--0--0--1---||--1--1--1--1--1--1--1--1--|
--2--2--2--2--2--2--2--2--|--x--x--x--x--x--x--x--x--*||--x--x--x--x--x--x--x--x--|
--2--2--x--x--2--2--x--x--|--3--3--x-----3--x--3--x--*||--3--3--x--x--3--3--3--3--|
--0--0--------0--0--------|--x--x--------x-----x------||--x--x--------x--x--x--x--|
--------------------------|--2--2--------2-----2------||--2--2--------2--2--2--2--|


 [Verse 3]

  E  E  E  E  E   E  E  E     E  E  E  E  E  E  E  E     E  E  E  E  E  E  E  E   
--0-----0------------0-----|-----3--------------------|-----------------------0--|
--------------1h--3-----3--|-----------3-----0--------|--------1--------0--1-----|
-----0-----0---------------|--------------0--------5--|--------------2-----------|
---------------------------|--------0-----------0-----|-----2-----2--------------|
--3------------------------|--------------------------|--0-----------------------|
---------------------------|--4-----------------------|--------------------------|


  E  E  E  E  E  E  E  E     E  E  E  E  E   E  E  E     E  E  E  E  E  E  E  E   
-----1--------------------|--------0------------0-----|-----3--------------------|
-----------3-----0-----1--|--------------1h--3-----3--|-----------3-----0--------|
--------------------------|-----0-----0---------------|--------------0--------5--|
--------3-----3-----3-----|---------------------------|--------0-----------0-----|
--------------------------|--3------------------------|--------------------------|
--2-----------------------|---------------------------|--4-----------------------|


  E  E  E  E  E  E  E  E     E  E  E  E  E  E  E  E     E  E  E  E  E  E  E  E   
-----------------------1--|-----0--------1--0--------|-----1-----0-----------3--|
--------1--------0--1-----|-----------1-----------1--|--L--------------0--1--5--|
--------------2-----------|--------------------------|--------------2-----------|
-----2-----2--------------|--------------------------|--------------------------|
--0-----------------------|--------3-----------3-----|--------------------------|
--------------------------|--2-----------2--------2--|--L-----2-----------------|


 [Final Chorus]

  H        E  E  E  E     H        E  E  E  E     Q.     E  E  E  E  E     E.  E.  E  E.   E.  E   
--L--------------5--3--|--L--------------5--3--|--L---------3--3--3--3--|--8---7------8S---7---3--|
--L-----------------3--|--L--------------------|------------------------|--6-------8--6--------5--|
-----------------------|--------------------5--|--L---------------------|-------------------------|
--------------5--------|-----------------------|------------------------|-------------5-----------|
--3--------3-----------|--------------5--------|--0------0--0-----------|--8----------------------|
-----------------------|--4--------4-----------|------------------------|-------------------------|


  H        E  E  E  E     Q    E  E  E  E  E  E     E.  E.  E  Q.     E   
--L-----------3--3--3--|--3-------0-----0--------|--0--------------------|
--L--------------------|-------6--------------6--|------3----------------|
-----------------------|-------------------------|----------5------------|
-----------------------|-------------------------|-----------------------|
--3--------3-----------|-------------------------|--0----------0------0--|
-----------------------|--4----------4-----4-----|-----------------------|


  E  E  E  E  E  E  E  E     H        E  E  E  E     H        E  E  E  E     Q.     E  E  E  E  E   
--1--0--L--------------3--|--L--------------5--3--|--L-----------3--5--3--|--L---------3--3--3--3--|
-----------------0-----5--|--L-----------------3--|--L--------------------|------------------------|
-----------5--------5-----|-----------------------|--------------------5--|--L---------------------|
--------------------------|--------------5--------|-----------------------|------------------------|
--------------------------|--3--------3-----------|-----------------------|--0------0--0-----------|
--2-----------4-----------|-----------------------|--4--------4-----------|------------------------|


  E.  E.  E  E.   E.  E     H        E  E  E  E     Q    E  E  E  E  E  E     E.  E.  E  Q.     E   
--8---7------8S---7---3--|--L-----------3--3--3--|--3-------0-----0--0-----|--0--------------------|
--6-------8--6--------5--|--L--------------------|-------6--------------6--|------3-------------1--|
-------------------------|-----------------------|-------------------------|----------5------------|
-------------5-----------|-----------------------|-------------------------|-----------------------|
--8----------------------|--3--------3-----------|-------------------------|--0----------0---------|
-------------------------|-----------------------|--4----------4-----------|-----------------------|


                            ^                        PM----------|  ^
                            >      PM >              >  >  >  >  >  >         
  E  E  E  E  Q    E  E     Q.     E  E  E  E  E     E  E  E  E  E  E  E  E   
--1--0--L-------------3--|--L---------------5--3--|--L-----------------5--3--|
----------------------5--|--L------------------3--|--L-----------------------|
-----------5-------5-----|------------------------|-----------------------5--|
-------------------------|--5------------5--------|--------------------------|
-------------------------|--3------3--3-----------|--5--5--5--5--5--5--------|
--2-----------4----------|------------------------|--4--4--4--4--4--4--------|


  ^
  >      PM >                                                              
  Q.     E  E  E  E  E     E.  E.  E  E.   E.  E     H        E  E  E  E   
--L---------3--3--3--3--|--8---7------8S---7---3--|--L-----------3-----3--|
------------------------|--6-------8--6--------5--|--L--------------------|
--L---------------------|-------------------------|-----------------------|
--7---------7-----------|-------------5-----------|-----------------5-----|
--0------0--0-----------|--8----------------------|--3--------3-----------|
------------------------|-------------------------|-----------------------|


                                                                               >  >                 
  Q    E  E  E  E  E  E     E.  E.  E  Q.     E     E  E  E  E  E  E  E  E     E  E  Q    H         
--3-------0-----0--------|--0--------------------|--1--0--L-----------------|--0--0----------------|
-------6--------------6--|------3----------------|--------------------3-----|--5--5----------------|
-------------------------|----------5------------|-----------5-----5-----5--|--5--5----------------|
-------------------------|-----------------------|--------------------------|--5--5----------------|
-------------------------|--0----------0------0--|--------------------------|--3--3----------------|
--4----------4-----4-----|-----------------------|--2-----------4-----------|----------------------|


  >  >                   >  >       >  >          >  >       >  >  >       >  >                     
  E  E  Q    H           E  E  Q    E  E  Q       E  E  Q    E  E  Q       E  E  E  E  E  E  E  E   
----------------------|--0--0-------0--0-------|--1--1-------1--1--3----|--0--0--0--0--0--0--0--0--|
--3--3----------------|--1--1-------1--1-------|--1--1-------1--1--1----|--5--5--5--5--5--5--5--5--|
--0--0----------------|--2--2-------2--2-------|--x--x-------x--x--x----|--5--5--5--5--5--5--5--5--|
--0--0----------------|--2--2-------2--2-------|--3--3-------3--3--3----|--5--5--5--5--5--5--5--5--|
--x--x----------------|--0--0-------0--0-------|--x--x-------x--x--x----|--3--3--3--3--3--3--3--3--|
--4--4----------------|------------------------|--2--2-------2--2--2----|--------------------------|


  >  >                       >  >     >  >     >  >     >  >  >  >  >  >  >  >    
  E  E  E  E  E  E  E  E     E  E  E  E  E  E  E  E     E  E  E  E  E  E  E  E    
--------------------------|-----------0--0--0--3--3--|--3--3--3--3--3--3--3--3--||
--3--3--3--6--6--6--6--6--|--1--1--1--1--1--1--1--1--|--1--1--1--1--1--1--1--1--||
--0--0--0--0--0--0--0--0--|--2--2--2--2--2--2--2--2--|--x--x--x--x--x--x--x--x--||
--0--0--0--0--0--0--0--0--|--2--2--2--2--2--2--2--2--|--3--3--3--3--3--3--3--3--||
--x--x--x--x--x--x--x--x--|--0--0--0--0--0--0--0--0--|--x--x--x--x--x--x--x--x--||
--4--4--4--4--4--4--4--4--|--------------------------|--2--2--2--2--2--2--2--2--||




Duration Legend
---------------
W - whole
H - half
Q - quarter
E - 8th
S - 16th
T - 32nd
X - 64th
. - note dotted
|-n-|  - n-tuplets


Tablature Legend
----------------
L - tied note
x - dead note
g - grace note
(n) - ghost note
> - accentuded note
NH - natural harmonic
AH - artificial harmonic
TH - tapped harmonic
SH - semi harmonic
PH - pitch harmonic
h - hammer on
p - pull off
b - bend
br - bendRelease
pb - preBend
pbr - preBendRelease
brb - bendReleaseBend
\n/ - tremolo bar dip
\n - tremolo bar dive
-/n - tremolo bar Release up
/n\ - tremolo bar inverted dip
/n - tremolo bar return
-\n - tremolo bar Release down
S - shift slide
s - legato slide
/ -  slide into from below or out of upwards
\ -  slide into from above or out of downwards
~ - vibrato
W - wide vibrato
tr - trill
TP - tremolo picking
T - tapping
S - slap
P - pop
< - fade in
^ - brush up
v - brush down
Login or Register to remove this ad.

2 comments on Houkiboshi

Brilliant!

It sounds great on the guitar pro. Will have to learn this!

Thanks

and happy playing :)