Login or Register to remove this ad.

Here To Stay (Bleach) Guitar Tab

Submitted: Mar 10, 2017 by scarecrowlol (Last updated: Mar 11, 2017)

5
Average: 5 (5 votes)
Download | Listen
Game: Bleach
Composer(s): Yoshiki Muzuo, Ikimono Gakar
Style: Arrangement, Fingerstyle

AutoScroll: Slow | Medium | Fast
Title: Here To Stay
SubTitle: Bleach
Artist: Shiro Sagisu
Tabber: Mitch Jackson
Tempo = 70
T/S = 4/4


      E  S S E  E  E.  S E  E       E  E  E  E  E  E  E  E       E  S S E  E  E.  S E  E       E  E  E  E  E  E  E  E
D ||--0---------------------0----|--2--5-----------------2----|--0---------------------0----|--2-----------0-------------|
A ||--0--3-2-0-----0-------------|-----------------3--5-------|--0--3-2-0-----0-------------|-----------3--------3-------|
F ||o-2---------2------2---------|--------------2-------------|--2---------2------2---------|--------6--------6----------|
C ||o-0------0-----2-------------|--------2--4----------------|--0------0-----2-------------|-----4-----------------4----|
G ||---------------0-----0-------|-----0----------------------|---------------0-----0-------|--2-------------------------|
C ||--5--------------------------|--0-------------------------|--5--------------------------|----------------------------|

                             
     E  S S E  E  E.  S E  E       E  E  E  E  E  E  E  E       E  S S E  S S E.  S E  E       E  E  E  E  E  E  E  E
  |--0---------------------0----|--2--5-----------------2----|--0-------------0---0----2----|--------------0-------------||
  |--0--3-2-0-----0-------------|-----------------3--5-------|--0--3-2-0----3---------------|--3--------3--------3-------||
  |--2---------2------2---------|--------------2-------------|--2-------------0---0---------|--------6--------6---------o||
  |--0------0-----2-------------|--------2--4----------------|--0------0--4-----------------|-----4-----------------4---o||
  |---------------0-----0-------|-----0----------------------|----------------0-----0-------|--2-------------------------||
  |--5--------------------------|--0-------------------------|--5---------------------------|----------------------------||


     Q     Q     Q     Q          E  E  E  E  E  E  E  E       E  E  E  S S S S S S S S S S      E  E  E  E  E  E  E  E
  |----------------------------|-----------2----------------|-----------2h3-0-----------------|-----------2----------------|
  |--------0-----2-----3-------|--------------3--------3----|-----------2-------3---2---0-----|--2-----5-----2--------2----|
  |----------------------------|--0--------0--------0-------|--------4--------0---------------|----------------------------|
  |----------------------------|--------4--------4----------|-----2---------------4---2---0---|--------2--4-----2--4-------|
  |--2-------------------------|-----2----------------------|--0------------------------------|-----0----------------------|
  |----------------------------|--2-------------------------|---------------------------------|--0-------------------------|

                                                     
     E  E  E  E  E  E  E  E       E  E  E  Q     E  E  E       E  E  E  E  E  E  E  E       E  E  E  E  E  E  E  E
  |----------------------------|-----------2-----0----------|----------------------------|--2-----------0--------0----|
  |-----------3--2--0-----0----|-----------0--------0--3----|--------2-----0-----2-------|--3--------3--------3-------|
  |--------2-----------2-------|--2-----0-------------------|--------3--------3----------|--------6--------6----------|
  |-----0----------------------|--------2--------2----------|-----4-----2--4-----2--4----|-----4----------------------|
  |----------------------------|--4--4----------------------|----------------------------|--2-------------------------|
  |--5-------------------------|----------------------------|--4-------------------------|----------------------------|

                                  ^                       
     Q     Q     Q     Q          E  E  E  E  E  E  E  E       E  E  E  S S S S S S S S S S      E  E  E  E  E  E  E  E
  |----------------------------|-----------2----------------|-----------2h3-0-----------------|-----------2----------------|
  |--------0-----2-----3-------|--------------3--------3----|-----------2-------3---2---0-----|--2-----5-----2--------2----|
  |----------------------------|--0--------0--------0-------|--------4--------0---------------|----------------------------|
  |----------------------------|--4-----4--------4----------|-----2---------------4---2---0---|--------2--4-----2--4-------|
  |--2-------------------------|-----2----------------------|--0------------------------------|-----0----------------------|
  |----------------------------|--2-------------------------|---------------------------------|--0-------------------------|

  
     E  E  E  E  E  E  E  E       E  E  E  E  E  E  E  E       E  E  E  E  E  E  E  E       E  E  E  E  E  E  E  E
  |----------------------------|-----------2-----0----------|----------------------------|--2-----------0--------0----|
  |-----------3--2--0-----0----|-----------0--------0--3----|--------2-----0-----2-------|--3--------3--------3-------|
  |--------2-----------2-------|--2-----0-----0-------------|--------3--------3----------|--------6--------6----------|
  |-----0----------------------|--------2--------2----------|-----4-----2--4-----2--4----|-----4----------------------|
  |----------------------------|--4--4----------------------|----------------------------|--2-------------------------|
  |--5-------------------------|----------------------------|--4-------------------------|----------------------------|

                                  ^                         
     Q     Q     Q     Q          E  E  E  E  E  E  E  E       E  E  E  S S S S S S S S S S      E  E  E  E  E  E  E  E
  |--2-------------------------|-----------2----------------|-----------2h3-0-----------------|-----------2----------------|
  |--------0-----2-----3-------|--------------3--------3----|-----------2-------3---2---0-----|--2-----5-----2--------2----|
  |----------------------------|--0--------0--------0-------|--------4--------0---------------|--2-------------------------|
  |----------------------------|--4-----4--------4----------|-----2---------------4---2---0---|--------2--4-----2--4-------|
  |--2-------------------------|-----2----------------------|--0------------------------------|-----0----------------------|
  |----------------------------|--2-------------------------|---------------------------------|--0-------------------------|

     ^
     E  E  E  E  E  E  E  E       E  E  E  E  E  E  E  E       E  E  E  E  E  E  E  E       E  E  E  E  E  E  E  E
  |----------------------------|-----------2-----0----------|----------------------------|--2-----------0--------0----|
  |--0--------3--2--0-----0----|-----------0--------0--3----|--------2-----0-----2-------|--3--------3--------3-------|
  |--2-----2-----------2-------|--2-----0-----0-------------|--------3--------3----------|--------6--------6----------|
  |-----0----------------------|--------2--------2----------|-----4-----2--4-----2--4----|-----4----------------------|
  |----------------------------|--4--4----------------------|----------------------------|--2-------------------------|
  |--5-------------------------|----------------------------|--4-------------------------|----------------------------|

                                  ^                       
     Q     Q     Q     Q          E  E  E  E  E  E  E  E       E  E  E  S S S S S S S S S S      E  E  E  E  E  E  E  E
  |--2-------------------------|-----------2----------------|-----------2h3-0-----------------|-----------2----------------|
  |--------0-----2-----3-------|--------------3--------3----|-----------2-------3---2---0-----|--2-----5-----2--------2----|
  |----------------------------|--0--------0--------0-------|--------4--------0---------------|--2-------------------------|
  |----------------------------|--4-----4--------4----------|-----2---------------4---2---0---|--------2--4-----2--4-------|
  |--2-------------------------|-----2----------------------|--0------------------------------|-----0----------------------|
  |----------------------------|--2-------------------------|---------------------------------|--0-------------------------|

     ^
     E  E  E  E  E  E  E  E       E  E  E  E  E  E  E  E       E  E  E  E  Q.       E       E  E  E  E  E  E  E  E
  |----------------------------|-----------2-----0----------|----------------------------|--------------0-------------|
  |--0--------3--2--0-----0----|-----------0--------0--3----|--------2-----0-------------|--0--------2--------0--2----|
  |--2-----2-----------2-------|--2-----0-----0-------------|--------3--------------2----|--------4--------2----------|
  |-----0----------------------|--------2--------2----------|-----4-----2--4-------------|-----2----------------------|
  |----------------------------|--4--4----------------------|----------------------------|--0-------------------------|
  |--5-------------------------|----------------------------|--4-------------------------|----------------------------|

     ^                                                     
     W                            W
  |----------------------------|----------------------------||
  |--4-------------------------|--L-------------------------||
  |--4-------------------------|--L-------------------------||
  |--4-------------------------|--L-------------------------||
  |--2-------------------------|--L-------------------------||
  |----------------------------|----------------------------||



This chord below is played by partial barring the bottom two strings with your index finger.

     E  E  E  E  E  E  E  E 
  |-----------2----------------|
  |--------------3--------3----|
  |--0--------0--------0-------|
  |--------4--------4----------|
  |-----2----------------------|
  |--2-------------------------|


This chord below can also be played like below if the stretch is too much, however i prefer the more dissonant chord.

 
     E  E  E  E  E  E  E  E                E  E  E  E  E  E  E  E  
  |--2-----------0-------------|        |--2-----------0-------------| 
  |-----------3--------3-------|        |--------2--3-----2--3-------|
  |--------6--------6----------|  --->  |----------------------------|
  |-----4-----------------4----|        |-----4-----------------4----|
  |--2-------------------------|        |--2-------------------------|
  |----------------------------|        |----------------------------|
Login or Register to remove this ad.

6 comments on Here To Stay

This is really nice and

5

This is really nice and lovely tune, although I dont know the original at all. Also, i personally cant do that stretch although I agree that it sounds better with the dissonance sadly I cant really do it.

Glad you like it :) Yea that

Glad you like it :) Yea that stretch is hard, im just lucky i have big hands :P

Excellent work Scarecrowlol,

Excellent work Scarecrowlol, very different than the version I am familiar with
but it sounds good.

Thanks man been looking for this!

5

Scarecrow thank you soooo much i love this anime and I love this song! I hope bleach is returning soon since tite kubo has a interview soon this month! Also i think i found your twitter lol you posted some stuff back in 2010 and 2011 lol sorry for this stalk just wondering who you were :)

No Problem glad you like it

No Problem glad you like it :) Oh sweet i could always do with some new bleach :D Hmm lol i don't remember having a twitter but i definitely have a youtube account, which is dead atm X_X

Hah for sure more Bleach is

Hah for sure more Bleach is always welcome especially if they bring back Shrio as the composer, his work on the series as whole was amazing.