Ads

Compassion (Bleach) Guitar Tab

Submitted: Sep 18, 2012 by scarecrowlol

4.857145
Average: 4.9 (7 votes)
Download | Listen
Game: Bleach
Composer(s): Yoshiki Muzuo, Ikimono Gakar
Style: Arrangement, Fingerstyle, Pinch harmonics

AutoScroll: Slow | Medium | Fast
Title: Compassion
SubTitle: Bleach
Artist: Shiro Sagisu
Music: Tabbed by Mitch Jackson
Tempo = 75


      E  E  E  E  E  E  E  E       E  E  E  E  E  E  E  E       E  E  E  E  E  E  E  E       E  E  E  E  E  E  E  E                                                        
E ||----------------------------|----------------------------|----------------------------|----------------------------|
B ||--------1-------------------|--------1-------------------|--------1-------------------|--------1-------------------|
G ||o-------------------0-------|--------------------0-------|--------------------0-------|--------------------0-------|
D ||o----2-----2----------------|-----2-----2----------------|-----2-----2----------------|-----2-----2----------------|
A ||--0--------------2-----2----|--0--------------2-----2----|--0--------------2-----2----|--0--------------2-----2----|
D ||--------------2-------------|--------------2-------------|--------------2-------------|--------------2-------------|


                                                          
      E  E  E  E  E  E  E  E       E  E  E  E  E  E  E  E       E  E  E  E  E  E  E  E       E  E  E  E  E  E  E  E                                                               
   |--------0-------------------|----------------------------|-----0--0-------------------|-----3--0-------------------|
   |--------1-----3--1--0--0----|-----1--1-----3--1--3--3----|--------1-----3--1--3--3----|--------1-------------------|
   |--------------------0-------|--------------------0-------|--------------------0-------|--------------------0-------|
   |-----2-----2----------------|-----2-----2----------------|-----2-----2----------------|-----2-----2----------------|
   |--0--------------2-----2----|--0--------------2-----2----|--0--------------2-----2----|--0--------------2-----2----|
   |--------------2-------------|--------------2-------------|--------------2-------------|--------------2-------------|

                                                          

      E  E  E  E  E  E  E  E       E  E  E  E  E  E  E  E       E  E  E  E  E  E  E  E       E  E  E  E  E  E  E  E                                                                
   |--------0-------------------|----------------------------|-----0--0-------------------|-----3--0-------------------|
   |--------1-----3--1--0--0----|-----1--1-----3--1--3--3----|--------1-----3--1--3--3----|--------1-------------------|
   |--------------------0-------|--------------------0-------|--------------------0-------|--------------------0-------|
   |-----2-----2----------------|-----2-----2----------------|-----2-----2----------------|-----2-----2----------------|
   |--0--------------2-----2----|--0--------------2-----2----|--0--------------2-----2----|--0--------------2-----2----|
   |--------------2-------------|--------------2-------------|--------------2-------------|--------------2-------------|

                                                          

      E  E  E  E  E  E  E  E       E  E  E  E  E  E  E  E       E  E  E  E  E  E  E  E       E  E  E  E  E  E  E  E                                                                
   |--------1--1--1--1--0--1----|--0-----1--------------1----|--------0--0--0--0-----0----|--------------------0-------|
   |----------------------------|-----3--------------3-------|--------------------3-------|--3--1--1-----3-------------|
   |-----2-----2-----2----------|-----2-----2-----2----------|-----0-----0-----0-----0----|-----0--------0--0--2--2----|
   |--0-------------------------|----------------------------|----------------------------|-----------2--2-------------|
   |--------------4-------------|--3-----------2-------------|--3-----------2-------------|--0-----------2-----4-------|
   |----------------------------|----------------------------|----------------------------|----------------------------|

                                                          

      E  E  E  E  E  E  E  E       E  E  E  E  E  E  E  E       E  E  E  E  E  E  E  E       E  E  E  E  E  E  E  E                                                                
   |--------1--1--1--1--0--1----|--0-----1--------------1----|--------0--0--0--0----------|-----0----------------------|
   |----------------------------|-----3--------------3-------|--------------------3--1----|--3-----1-----------0--1----|
   |-----2-----2-----2----------|-----2-----2-----2----------|-----0-----0-----0-----0----|-----0----------------------|
   |--0-------------------------|----------------------------|----------------------------|-----------2-----2----------|
   |--------------4-------------|--3-----------2-------------|--3-----------2-------------|--0-------------------------|
   |----------------------------|----------------------------|----------------------------|--------------5-------------|

                                                          
                                                                                                      ^
      Q.       E  E  E  E  E       Q.       E  E  E  E  E       Q.       E  E  E  E  E       Q.       H           E                                            
   |-----------0----------------|-----------------------0L---|--L--------0----------------|----------------------------||
   |-----------1--3--1--0--1L---|--L--------1--3--1--3--1L---|--L--------1--3--1--0-------|----------------------------||
   |--2--------2--0--2--0--2L---|--L--------2--0--2--0--2L---|--L--------2--0--2--0--2L---|--L--------0L----------L---o||
   |--3--------3--2--3--2--3L---|--L--------3--2--3--2--3L---|--L--------3--2--3--2--3L---|--L--------3L----------L---o||
   |--------------------3-------|----------------------------|--------------------3--1L---|--L--------3L----------L----||
   |--3--------3--2--0-----0L---|--L--------0--2--0--2--3L---|--L--------3--2--0-----0L---|--L--------5L----------L----||

                                                         
      ^
      E. E  E  E  E   Q      S     W
   |--0----------<0>-<5>L----L--|--L-------------------------||
   |--2-------<2>---------------|--L-------------------------|| 
   |--4----<4>------------------|--L-------------------------||
   |--2-<2>---------------------|--L-------------------------||
   |--0-------------------------|--L-------------------------||
   |--0-------------------------|--L-------------------------||

Login or Register to remove this ad.

4 comments on Compassion

very nice! and easy to play

5

very nice! and easy to play

This one somehow slipped past

This one somehow slipped past my attention. Nice Tab.

You lost me at...

4

It was all good and well until you started pairing the L's with the numbers. What is L? is it a variable!? Can L be anything!?!?!?!?!? I'm never going to learn to play guitar... *Sigh*

haha lol the 'L' just stands

haha lol the 'L' just stands for 'let ring', its just there for the sake of knowing how long to hold that chord or note for ;p learnings all part of it bro!