Ads

End Credits Part 2 (Black Mesa) Guitar Tab

Submitted: Sep 25, 2013 by Shrinx

4.5
Average: 4.5 (2 votes)
Download | Listen
Game: Black Mesa
Composer(s): Joel Nielsen
Style: 2 or more instruments, Transcription

AutoScroll: Slow | Medium | Fast
End Credits Part 2
Black Mesa
Composed by Joel Nielsen
Tabbed by Shrinx

Gtr I - Standard Tuning (EADGBe)
Gtr II - Standard Tuning (EADGBe)


  Gtr I
e|----3---|--------|----3--5|6-5-3---|----3---|--------|----3--5|6-5-3---|
B|--3---3-|--3-4-3-|--3-----|------6-|--3---3-|--3-4-3-|--3-----|------6-|
G|0-------|0-------|0-------|--------|0-------|0-------|0-------|--------|
D|--------|--------|--------|--------|--------|--------|--------|--------|
A|--------|--------|--------|--------|--------|--------|--------|--------|
E|--------|--------|--------|--------|--------|--------|--------|--------|


e|----3---|--------|----3--5|6-5-3---|----3---|--------|----3--5|6-5-3---|
B|--3---3-|--3-4-3-|--3-----|------6-|--3---3-|--3-4-3-|--3-----|------6-|
G|0-------|0-------|0-------|--------|0-------|0-------|0-------|--------|
D|--------|--------|--------|--------|--------|--------|--------|--------|
A|--------|--------|--------|--------|--------|--------|--------|--------|
E|--------|--------|--------|--------|--------|--------|--------|--------|


  Gtr I
e|3-------|--------|--------|--------|--------|--------|--------|--------|
B|--------|--------|--------|--------|--------|--------|--------|--------|
G|--------|--------|--------|--------|--------|--------|--------|--------|
D|--------|--------|--------|--------|--------|--------|--------|--------|
A|--------|--------|--------|--------|--------|--------|--------|--------|
E|--------|--------|--------|--------|--------|--------|--------|--------|
 |
 |
 |Gtr II
e|--------|--------|--------|--------|--------|--------|--------|--------|
B|--------|--------|--------|--------|--------|--------|--------|--------|
G|--3---3-|--3---3-|--3---3-|--3---3-|--3---3-|--3---3-|--3---3-|--3---3-|
D|5---5---|3---3---|1---1---|--------|5---5---|3---3---|1---1---|--------|
A|--------|--------|--------|3---3---|--------|--------|--------|3---3---|
E|--------|--------|--------|--------|--------|--------|--------|--------|


  Gtr I
e|----3---|--------|----3--5|6-5-3---|----3---|--------|----3--5|6-5-3---|
B|--3---3-|--3-4-3-|--3-----|------6-|--3---3-|--3-4-3-|--3-----|------6-|
G|0-------|0-------|0-------|--------|0-------|0-------|0-------|--------|
D|--------|--------|--------|--------|--------|--------|--------|--------|
A|--------|--------|--------|--------|--------|--------|--------|--------|
E|--------|--------|--------|--------|--------|--------|--------|--------|
 |
 |
 |Gtr II
e|--------|--------|--------|--------|--------|--------|--------|--------|
B|--------|--------|--------|--------|--------|--------|--------|--------|
G|--3---3-|--3---3-|--3---3-|--3---3-|--3---3-|--3---3-|--3---3-|--3---3-|
D|5---5---|3---3---|1---1---|--------|5---5---|3---3---|1---1---|--------|
A|--------|--------|--------|3---3---|--------|--------|--------|3---3---|
E|--------|--------|--------|--------|--------|--------|--------|--------|


  Gtr I
e|----3---|--------|----3--5|6-5-3---|----3---|--------|----3--5|6--8-6-8|
B|--3---3-|--3-4-3-|--3-----|------6-|--3---3-|--3-4-3-|--3-----|--------|
G|0-------|0-------|0-------|--------|0-------|0-------|0-------|--------|
D|--------|--------|--------|--------|--------|--------|--------|--------|
A|--------|--------|--------|--------|--------|--------|--------|--------|
E|--------|--------|--------|--------|--------|--------|--------|--------|
 |
 |
 |Gtr II
e|--------|--------|--------|--------|--------|--------|--------|--------|
B|--------|--------|--------|--------|--------|--------|--------|--------|
G|--3---3-|--3---3-|--3---3-|--3---3-|--3---3-|--3---3-|--3---3-|--3---3-|
D|5---5---|3---3---|1---1---|--------|5---5---|3---3---|1---1---|--------|
A|--------|--------|--------|3---3---|--------|--------|--------|3---3---|
E|--------|--------|--------|--------|--------|--------|--------|--------|


  Gtr I
e|10-----11-|8-------8|10--8------|--------|10--10-11-|8-------8|10--8------|---------|
B|----------|-----11--|------11-10|8-------|----------|-----11--|------11-10|8--------|
G|----------|---------|-----------|------7-|----------|---------|-----------|------10-|
D|----------|---------|-----------|--------|----------|---------|-----------|---------|
A|----------|---------|-----------|--------|----------|---------|-----------|---------|
E|----------|---------|-----------|--------|----------|---------|-----------|---------|
 |
 |
 |Gtr II
e|--------|--------|--------|--------|--------|--------|--------|--------|
B|--------|--------|--------|--------|--------|--------|--------|--------|
G|--3---3-|--3---3-|--3---3-|--3---3-|--3---3-|--3---3-|--3---3-|--3---3-|
D|5---5---|3---3---|1---1---|--------|5---5---|3---3---|1---1---|--------|
A|--------|--------|--------|3---3---|--------|--------|--------|3---3---|
E|--------|--------|--------|--------|--------|--------|--------|--------|


  Gtr I
e|3-------|1-------|--------|--------|--------|
B|--------|--------|--------|--------|--------|
G|--------|--------|0-------|--------|--------|
D|--------|--------|--------|--------|--------|
A|--------|--------|--------|--------|--------|
E|--------|--------|--------|--------|--------|
 |
 |
 |Gtr II
e|--------|--------|--------|--------|--------|
B|--------|--------|--------|--------|--------|
G|--3---3-|--3---3-|--3---3-|--3---3-|--------|
D|5---5---|3---3---|1---1---|--------|--------|
A|--------|--------|--------|3---3---|--------|
E|--------|--------|--------|--------|3-------|


This is my very first tab here. I believe that I transposed this track accurately,
but if something sounds off, by all means inform me in the comments and I will see
to it.

A very easy song to play, but a great sounding one nonetheless. The first guitar is
the main melody, while the second guitar represents the piano in the background. The
second guitar isn't mandatory, except for the few bars where Guitar 1 goes silent,
but still sounds great when included, and I recommend adding that into a performance.
Login or Register to remove this ad.

2 comments on End Credits Part 2

Very nice, and easy to play,

4

Very nice, and easy to play, thank you.

No problem!

No problem!