Ads

Elizabeth's Theme (Bioshock Infinite) Guitar Tab

Submitted: Jun 23, 2015 by Wanderer (Last updated: Jun 23, 2015)

3
Average: 3 (1 vote)
Download | Listen
Game: Bioshock Infinite
Composer(s): Garry Schyman, Charles H. Gabriel
Style: Arrangement, Fingerstyle

AutoScroll: Slow | Medium | Fast
Tempo = 120
Steel Guitar

Legend
L - tied note
x - dead note
h - hammer on/pull off
b - bend
s - slide
~ - vibrato
g - ghost note
> - accentuated note
t - trill
M - palm mute
. - staccato
P - popping (bass)
S - slapping (bass)
+ - tapping
W - wide vibrato
< - fade in
w - whammy bar
= - tremolo picking
v - brush up
^ - brush down
V - pick stroke up
n - pick stroke down


E |-------|-------|-------|----------------|----------|----------|----------|
B |-------|-------|-------|----------------|----------|----------|----------|
G |-------|-------|-------|----------------|----------|----------|----------|
D |-------|-------|-------|----------------|----------|----------|----------|
A |--0----|--0----|--0----|--0-------------|--1s-0----|-----0----|----------|
E |-------|-------|-------|----------------|----------|--3-------|--1-------|


----------|----------|-------|----------|----------|----------|----------|
----------|----------|-------|----------|----------|----------|----------|
----------|----------|-------|----------|----------|----------|----------|
--0-------|----------|-------|----------|--2--2----|----------|----------|
--1s-3----|--1--3----|--0----|----------|----------|----------|----------|
-----5----|----------|-------|--3--1----|----------|--3--3----|-----1----|


--------------------------------------------------------------------------------
--------------------------------------------------------------------------1-----
-----------2--------0--------0--------2-----------------3--------0--------------
--3--------------------------------------------3--------------------------------
--------------------------------------------------------------------------------
--------------------------------------------------------------------------------


--------------------|----------------|--0--------3b---|
--------------------|----------------|----------------|
--------------------|-----0s-2-------|----------------|
--------------------|----------------|--3s-0----------|
--------------------|----------------|----------------|
--------------------|--1-------------|----------------|


--1s-0s-1-------------------------------------------|
--------------------3-----------1-------------------|
----------------------------------------------------|
----------------------------------------------------|
--------------------------------3-------------------|
----------------------------------------------------|


----------------------------|--7-----5-------------------|
--1--------0----------------|----------------------------|
-----------------0----------|----------------------------|
-----------------0----------|-----------0-----0-----0----|
--3-------------------------|--------0-----0-----0-------|
--3--------3----------------|----------------------------|


--3s-5s-3s----------1L----------------1-------------|
----------------------------------------------------|
----------------------------------------------------|
----------------------------------------------------|
--0-----------------------------------0-------------|
----------------------------------------------------|


--------1-------------------|----------------------------|
--------------3-------------|----------------------------|
--2-------------------------|--------3--2----------------|
--0-----3-----3-----3-------|--3-----0-----3-----3-------|
-----0-----0-----3-----3----|-----3-----------3-----3----|
----------------------------|-----------1----------------|


-----1--0-------------------|----------------------------|
--------------------1-------|--------3--------------3----|
--------------2--------0----|-----0-----------------0----|
--3-------------------------|-----------0-----0----------|
-----3--3--3-----3--3-------|--3-----------0-----0-------|
----------------------------|----------------------------|


-----------------------1----|-----0----------------------|
----------------------------|-----------------1----------|
-----2----------------------|-----------3-----3-----3----|
-----------0-----3----------|--------3-----3-----3-------|
--0-----0-----0-----0-------|--0--1----------------------|
----------------------------|----------------------------|


----------------------------|-----------------5----------|
-----0-----------0----------|----------------------------|
-----------0-----0-----2----|----------------------------|
--3-----0-----0-----0-------|-----0-----0-----------0----|
----------------------------|--0-----0-----0-----0-------|
-----3----------------------|----------------------------|


-----------3----------------|-----8----------------------|
----------------------------|-----------------8-----10---|
----------------------------|----------------------------|
-----0-----------0-----0----|-----------0-----0----------|
--0-----0-----0-----0-------|--0-----0-----0-----0-------|
----------------------------|----------------------------|


-----------------0----------|----------------------------|
-----------8-----1----------|-----------0-----------12s--|
----------------------------|-----------7-----0-----0----|
-----0-----0----------------|-----2--------0-----0-------|
--0-----0-----0--------3----|----------------------------|
--------------------3-------|--3-----3--3----------------|


----------------------------|----------|--6--5----|--3--5----|-----0----|
--10-0----------------------|----------|--8--6----|--5--6----|--6--8----|
-----0----------------------|----------|----------|----------|--7-------|
-----------0--------3-------|--2-------|----------|----------|----------|
--------------------5-------|--3--2----|----------|----------|----------|
-----------3----------------|----------|----------|----------|----------|


-----0----|--0-------|----------||
--6-------|-----3L---|--3-------||
--7--5----|--5-------|----------||
----------|----------|----------||
----------|----------|----------||
----------|----------|----------||

Login or Register to remove this ad.