Login or Register to remove this ad.

Beacon of Fire (Berserk (2016)) Guitar Tab

Submitted: Jul 15, 2017 by scarecrowlol

5
Average: 5 (3 votes)
Download | Listen
Game: Berserk (2016)
Composer(s): Shiro Sagisu
Style: Arrangement, Fingerstyle

AutoScroll: Slow | Medium | Fast
Title: Beacon Of Fire
SubTitle: Berserk (2016)
Artist: Shiro SAGISU, Yoshimitsu Taki, Susumu Hirasawa
Tabber: Mitch Jackson
Tempo = 96
T/S = 4/4

               

     E  E  Q     E  Q.            W                            E  E  Q     H                W
D |-----10-7-----9-------------|--L-------------------------|-----10-7-----9-------------|--L-------------------------|
A |-----------------10---------|--L-------------------------|----------------------------|----------------------------|
E |--10------------------------|--L-------------------------|--10------------------------|--L-------------------------|
C |----------------------------|----------------------------|----------------------------|----------------------------|
G |----------------------------|----------------------------|----------------------------|----------------------------|
C |----------------------------|----------------------------|----------------------------|----------------------------|

         
     E  E  Q     E  Q.            W                            E  E  Q     H                W
  |----------------------------|----------------------------|----------------------------|----------------------------|
  |-----3--0-----2-------------|--L-------------------------|-----3--0-----2-------------|--L-------------------------|
  |-----------------3----------|--L-------------------------|----------------------------|----------------------------|
  |--2-------------------------|--L-------------------------|--2-------------------------|--L-------------------------|
  |----------------------------|----------------------------|----------------------------|----------------------------|
  |----------------------------|----------------------------|----------------------------|----------------------------|


      E  E  E  E  E  E  E  E       W                            E  E  E  E  E  E  E  E       W
  ||----------------------------|----------------------------|----------------------------|---------------------------||
  ||--------------------4--6----|--L-------------------------|--------------------0--2----|--L------------------------||
  ||o----------4--6--7----------|--L-------------------------|-----------0--2--3----------|--L-----------------------o||
  ||o-------6-------------------|--L-------------------------|--------2-------------------|--L-----------------------o||
  ||-----4----------------------|--L-------------------------|-----0----------------------|--L------------------------||
  ||--4-------------------------|--L-------------------------|--0-------------------------|--L------------------------||

                                                                    
     E  E  Q     E  Q.            W                            E  E  Q     H                W
  |-----10-7-----9-------------|--L-------------------------|-----10-7-----9-------------|--L-------------------------|
  |-----------------10---------|--L-------------------------|----------------------------|----------------------------|
  |--10------------------------|--L-------------------------|--10------------------------|--L-------------------------|
  |----------------------------|----------------------------|----------------------------|----------------------------|
  |----------------------------|----------------------------|--7-------------------------|--L-------------------------|
  |----------------------------|----------------------------|----------------------------|----------------------------|
                                                                         

     E  E  Q     E  Q.            W                            E  E  Q     H                W
  |----------------------------|----------------------------|----------------------------|----------------------------|
  |-----3--0-----2-------------|--L-------------------------|-----3--0-----2-------------|--L-------------------------|
  |-----------------3----------|--L-------------------------|----------------------------|----------------------------|
  |--2-------------------------|--L-------------------------|--2-------------------------|--L-------------------------|
  |----------------------------|----------------------------|----------------------------|----------------------------|
  |--2-------------------------|--L-------------------------|--2-------------------------|--L-------------------------|

    
     E  E  E  E  E  E  E  E       W                            E  E  E  E  E  E  E  E       W
  |----------------------------|----------------------------|----------------------------|----------------------------|
  |--------------------4--6----|--L-------------------------|--------------------0--2----|--L-------------------------|
  |-----------4--6--7----------|--L-------------------------|-----------0--2--3----------|--L-------------------------|
  |--------6-------------------|--L-------------------------|--------2-------------------|--L-------------------------|
  |-----4----------------------|--L-------------------------|-----0----------------------|--L-------------------------|
  |--4-------------------------|--L-------------------------|--0-------------------------|--L-------------------------|
                                                                          

     E  E  E  E  E  E  E  E       H           E  E  E  E       E  E  E  E  E  E  E  E       W
  |--------4-------------------|--L-----------L--3--2--1----|--0-------------------------|----------------------------|
  |--------------------4--6----|--L-------------------------|--------------------0--2----|--L-------------------------|
  |-----------4--6--7----------|--L-------------------------|-----------0--2--3----------|--L-------------------------|
  |--------6-------------------|--L-------------------------|--------2-------------------|--L-------------------------|
  |-----4----------------------|--L-------------------------|-----0----------------------|--L-------------------------|
  |--4-------------------------|--L-------------------------|--0-------------------------|--L-------------------------|

      ^                                                         ^
      E  E  Q     E  Q.            W                            E  E  Q     H                W
  ||--0-------------------------|----------------------------|--0-------------------------|---------------------------||
  ||-----3--0-----2-------------|----------------------------|-----3--0-----2-------------|---------------------------||
  ||o-0--------------3----------|----------------------------|----------------------------|---------------------------||
  ||o---------------------------|--2-------------------------|--0-------------------------|--2------------------------||
  ||--2-------------------------|----------------------------|--2-------------------------|---------------------------||
  ||--2-------------------------|----------------------------|--2-------------------------|---------------------------||


     E  E  E  E  E  E  E  E       H           E  E  E  E       E  E  E  E  E  E  E  E       W
  |--------4--------------4----|--L-----------L--3--2--1----|--0-------------------------|--L-------------------------|
  |--------------------4--6----|--L--------------5--4--3----|--2-----------------0--2----|--L-------------------------|
  |--4--------4--6--7----------|--L-------------------------|--0--------0--2--3----------|--L-------------------------|
  |--------6-------------------|--L-------------------------|--------2-------------------|--L-------------------------|
  |-----4----------------------|--L-------------------------|-----0----------------------|--L-------------------------|
  |--4-------------------------|--L-------------------------|--0-------------------------|--L-------------------------|
   

     E  E  E  E  E  E  E  E       H           E  E  E  E       E  E  E  E  E  E  E  E       W
  |--------4--------------4----|--L-----------L--9----------|--0-------------------------|--L-------------------------|
  |--------------------4--6----|--L--------------5--7--6----|--2-----------------0--2----|--L-------------------------|
  |-----------4--6--7----------|--L-----------------9--4----|--0--------0--2--3----------|--L-------------------------|
  |--------6-------------------|--L-------------------------|--------2-------------------|--L-------------------------|
  |-----4----------------------|--L-------------------------|-----0----------------------|--L-------------------------|
  |--4-------------------------|--L-------------------------|--0-------------------------|--L-------------------------| 


     W
  |--L------------------------||
  |--L------------------------||
  |--L------------------------||
  |--L------------------------||
  |--L------------------------||
  |--L------------------------||

Login or Register to remove this ad.