Live for Life ~Ookami-tachi no Yoru~ (Ben-To) Guitar Tab

Submitted: May 05, 2012 by komarEX

5
Average: 5 (1 vote)
Download | Listen
Game: Ben-To
Composer(s): Aimi
Style: 2 or more instruments, Transcription

This song is also called LIVE for LIFE 〜狼たちの夜〜

Click here for a video example.

AutoScroll: Slow | Medium | Fast
Song: Live for Life ~Ookami-tachi no Yoru~ [LIVE for LIFE 〜狼たちの夜〜]
Artist: Aimi
Anime: Ben-Tou [ベン・トー]
Type: OP - Opening (TV size)
TAB by: komarEX (http://www.youtube.com/user/komarEXcam)

Copyright © 2012 by komarEX, All rights reserved


Right guitar:

e||-------------------------------------------|----------------------------------|
B||-------------------13/15-15-13-15-13-------|----------------------------------|
G||-12-12-15-12-15-12-------------------15-13-|-12-12-15-12-15-12\10/12-12\10/12-|
D||-------------------------------------------|----------------------------------|
A||-------------------------------------------|----------------------------------|
E||-------------------------------------------|----------------------------------|


e||-------------------------------------------|------------------13-13----|
B||-------------------13/15-15-13-15-13-------|-15-15--15-15--15-------15-|
G||-12-12-15-12-15-12-------------------15-13-|---------------------------|
D||-------------------------------------------|---------------------------|
A||-------------------------------------------|---------------------------|
E||-------------------------------------------|---------------------------|


e||----------------------------------------|----------------------------------10-------|
B||----------------------------------11-10-|-------------------------------------11-10-|
G||-12-12-10-12-10-------12-12-10-12-------|-12-12-10-12-10-------12-12-10-12----------|
D||----------------12-10-------------------|----------------12-10----------------------|
A||----------------------------------------|-------------------------------------------|
E||----------------------------------------|-------------------------------------------|


e||-------------------------------------|-------------------------------------|
B||----------------------------------11-|-------------------------------------|
G||-12-12-10-12-10-------12-12-10-12----|-/18-18\-/18-18\-/20-20^-20^-20^-20^-|
D||----------------12-10----------------|-/17-17\-/17-17\-/19-19^-19^-19^-19^-|
A||-------------------------------------|-------------------------------------|
E||-------------------------------------|-------------------------------------|


e||------------------------------------------------|
B||--------------------------------------------15^-|
G||-3--3--x----3--3--x-----3--3--x----3--3--x--14^-|
D||-5--5--x----5--5--x-----5--5--x----5--5--x------|
A||-5--5--x----5--5--x-----5--5--x----5--5--x------|
E||-3--3--x----3--3--x-----3--3--x----3--3--x------|


e||----------------------15-13----|------------------/17--17--17--17\-|
B||----------------------------15-|------------------/16--16--16------|
G||--3--3--x----3--3--x-----------|-3--3--x----3--x-------------------|
D||--5--5--x----5--5--x-----------|-5--5--x----5--x-------------------|
A||--5--5--x----5--5--x-----------|-5--5--x----5--x-------------------|
E||--3--3--x----3--3--x-----------|-3--3--x----3--x-------------------|


e||-6---8------------------------|-6---8--5--3-|-6---8--5----------|
B||-8--10------------------------|-8--10--6--3-|-8--10--6----------|
G||-8--10------------------------|-8--10--7--3-|-8--10--7----------|
D||-8--10--/7-10-8-8-10-10-8-10^-|-8--10--7--5-|-8--10--5----------|
A||-6---8------------------------|-6---8--5--5-|-6---8--5--5-7-8-5-|
E||-x---x------------------------|-x---x--x--3-|-x---x--x--3-5-6-3-|


e||-6--5------|
B||-8--7------|
G||-8--7------|
D||-8--7--12/-|
A||-6--5--12/-|
E||-x--x------|


e||-3--5--7--7-|
B||-5--7--7--7-|
G||-5--7--7--9-|
D||-5--7--9--9-|
A||-3--5--9--7-|
E||-x--x--7--x-|


e||-3--5--7--7-7-5-5-|
B||-5--7--7--7-7-5-8-|
G||-5--7--7--9-9-7-7-|
D||-5--7--9--9-9-7-5-|
A||-3--5--9--7-7-5-x-|
E||-x--x--7--x-x-x-x-|


e||-3--5--7----------|
B||-5--7--7----------|
G||-5--7--7--------7-|
D||-5--7--9--9-9-7-5-|
A||-3--5--9--7-7-5---|
E||-x--x--7----------|


e||-3--5--3--3--15h17p15-----3--3-|
B||-5--7--3--3-----------15--3--3-|
G||-5--7--5--4---------------5--4-|
D||-5--7--5--5---------------5--5-|
A||-3--5--x--x---------------x--x-|
E||-x--x--x--x---------------x--x-|


e||--------------------|------------------------|
B||--------------------|------------------------|
G||-7-7-5-7--7-7-5-5---|-7-7-5-7--7-7-10-7---7v-|
D||-5-5-3-5--5-5-3-3-7-|-5-5-3-5--5-5--8-5-7-5v-|
A||------------------5-|-------------------5----|
E||--------------------|------------------------|


Left guitar:

e||-----------------------------|-----------------------|
B||-----------------------------|-----------------------|
G||-----3---3---5/7-7-5-7\5-3---|-----3---3-------------|
D||-5-5---5---5---------------5-|-5-5---5---5-3-5-5-3-5-|
A||-----------------------------|-----------------------|
E||-----------------------------|-----------------------|


e||-----------------------------|-------------------|
B||-----------------------------|-------------6-6---|
G||-----3---3---5/7-7-5-7\5-3---|-7-7--7-7--7-----7-|
D||-5-5---5---5---------------5-|-------------------|
A||-----------------------------|-------------------|
E||-----------------------------|-------------------|


e||-----------------------|-----------------------------|
B||-----------------------|-----------------------------|
G||-----3---3-------------|-----3---3---5/7-7-5-7\5-3---|
D||-5-5---5---5-3-5-5-3-5-|-5-5---5---5---------------5-|
A||-----------------------|-----------------------------|
E||-----------------------|-----------------------------|


e||-----------------------|-------------------------|
B||-----------------------|-------------------------|
G||-----3---3-------------|-----3---3-------5-5-5-5-|
D||-5-5---5---5-3-5-5-3-5-|-5-5---5---5-5/7---------|
A||-----------------------|-------------------------|
E||-----------------------|-------------------------|


e||----------------------------------|----------------------|------------|
B||----------------------------------|----------------------|------------|
G||-3-3-x--3-3-x----3-3-x--3-3-x--7^-|-3-3-x--3-3-x---------|-3-3-x--3-x-|
D||-5-5-x--5-5-x----5-5-x--5-5-x--7^-|-5-5-x--5-5-x--5-3----|-5-5-x--5-x-|
A||----------------------------------|-------------------5\-|------------|
E||----------------------------------|----------------------|------------|


e||-6---8----------------------------|-6---8--------5-----15-15----15-15-|
B||-8--10--/10-13-11-11-13-13-11-13^-|-8--10/12\10--6--18-------18-------|
G||-8--10----------------------------|-8--10/12\10--7--------------------|
D||-8--10----------------------------|-8--10/12\10--7--------------------|
A||-6---8----------------------------|-6---8--------5--------------------|
E||-x---x----------------------------|-x---x--------x--------------------|


e||-6---8--5------------|-6--6--6-6--5-----|
B||-8--10--6--8-10-11-8-|-8--6--6-6--7-----|
G||-8--10--7------------|-8--8-10-8--7-----|
D||-8--10--5--5--7--8-5-|-8--8--8-8--7-----|
A||-6---8--5------------|-6--6--6-6--5--5/-|
E||-x---x--x------------|-x--x--x-x--x-----|


e||------------------7-10-7-|------------------12-12-10-15-|------------------12-11-10-10-|
B||--8--10-12-10--7--8--8-8-|--8--10-12-10--7--------------|--8--10-12-10--7-----------10-|
G||--9--11-11-11--8--9--9-9-|--9--11-11-11--8--------------|--9--11-11-11--8-----------12-|
D||-10--12-12-12--9---------|-10--12-12-12--9--------------|-10--12-12-12--9-----------12-|
A||-10------------9---------|-10------------9--------------|-10------------9-----------10-|
E||-------------------------|------------------------------|----------------------------x-|


e||---------------3--3--3h5p3-----3--3-|
B||--8--10-12-10--3--3--------3---3--3-|
G||--9--11-11-11--5--4------------5--4-|
D||-10--12-12-12--5--5------------5--5-|
A||-10------------x--x------------x--x-|
E||---------------x--x------------x--x-|


e||---------------------|------------------------|
B||---------------------|------------------------|
G||---------------------|--------------3---------|
D||-5-5-3-5--5-5-3-3----|-5-5-3-5--5-5---3----5v-|
A||------------------\5-|------------------\5----|
E||---------------------|------------------------|


Copyright © 2012 by komarEX, All rights reserved
Login or Register to remove this ad.