Login or Register to remove this ad.

The Gates Of Hell (Bayonetta) Guitar Tab

Submitted: Oct 05, 2017 by saitamkoloss

0
Download | Listen
Game: Bayonetta
Composer(s): Various Composers
Style: Arrangement, Fingerstyle

AutoScroll: Slow | Medium | Fast
Time Signature 12/8 
Tempo=100 bmp


     H.                  E  E  E  E  E S S    H.  
e||-3------------------|-------8--7--6-5-4-|-3------------------|
B||-3------------------|----6--------------|-5------------------|
G||-3------------------|-------------------|-3------------------|
D||-1------------------|-------------------|-4------------------|
A||--------------------|-------------------|--------------------|
E||-1------------------|-8-----------------|--------------------|


     E  E  E  E  E  E     H.                   E  E  E  Q  S S
e||--------------3------|-------------------|-----3--4--6--------|
B||-----4--5--6---------|-1-----------------|--------------4-3---|
G||-----------------6---|-------------------|--------------------|
D||---------------------|-------------------|--------------------|
A||---------------------|-------------------|--------------------|
E||--4------------------|-1-----------------|--4-----------------|


     E  E  E  E  E  E     E  E  E  E  E  E     Q  H      
e||---------------------|-------------8-----|--3--3--------------|
B||--2--------------4---|----------------9--|--------------------|
G||--------3------------|-------3-----------|--------------------|
D||-----3--------3------|----2--------------|--------------------|
A||---------------------|-------------------|--------------------|
E||--3--------1---------|-0--------8--------|--1-----------------|


     H      E  E          Q   Q   E  E        Q    Q    Q
e||---------3--4--------|-0---6---6--4------|-6----4-------------|
B||---------------------|-------------------|-----------5--------|
G||---------------------|-------------------|--------------------|
D||---------------------|-2-----------------|--------------------|
A||--3------------------|-------------------|-3------------------|
E||---------------------|-------------------|--------------------|


     H.                   H     E   E         Q   Q     E  E   
e||--3------------------|-------3---4-------|-0---11---11--9-----|
B||---------------------|-------------------|--------------------|
G||---------------------|-------------------|--------------------|
D||---------------------|-------------------|--------------------|
A||---------------------|-------------------|--------------------|
E||--1------------------|-4-----------------|-8------------------|


     Q   Q    E  E         H          Q       Q      Q    Q  
e||-11---9--------------|-------------------|--------------------|
B||-----------9-11------|-13----------------|--12---------6------|
G||---------------------|-------------------|--------------------|
D||---------------------|------------11-----|--------------------|
A||-7-------------------|-------------------|--11----7----2------|
E||---------------------|--9----------------|--------------------|


     Q.      Q.            H.                   Q     Q     Q  
e||---------------------|-------------------|--------------------|
B||--5------------------|-------------------|--------------------|
G||---------------------|--5----------------|---5-----6-----7----|
D||---------------------|--5----------------|--------------------|
A||--3------------------|-------------------|---3----------------|
E||----------3----------|-------------------|--------------------|


     Q    E   E   Q       H           E  E     H          E  E
e||---------------4-----|-3-----------X--6--|-------------3--4---|
B||--5------------------|-------------------|--4-----------------|
G||-------5-------------|-------------------|--------------------|
D||--5------------------|-------------------|--------------------|
A||-----------3---------|-------------------|--3-----------------|
E||---------------------|-1-----------------|--------------------|



     Q   Q   E  S  S      H          Q         Q  E  E  E  E
e||--0----------3--1----|-0-----------------|-----0--1--3--4-----|
B||------4---X----------|-------------------|--4-----------------|
G||---------------------|------------5------|--2-----------------|
D||--2------------------|------------5------|--1-----------------|
A||---------------------|-3-----------------|--0-----------------|
E||---------------------|-------------------|--------------------|


    Q    Q    E  E         E  E  E  Q   E      E  Q.     Q  
e||-5---------9--8------|-11-12-13--9-------|--------------------|
B||-5---------8---------|--------------11---|--------------------|
G||-6----5----9---------|-------------------|-----10-------------|
D||-5----5--------------|-------------------|--0-----------------|
A||---------------------|-------------------|-----------12-------|
E||-----------8---------|--6----------------|-----------13-------|


    E  E  E  E  E  E     H.                   E  E  E  Q  E
e||--------------3------|-------------------|-----3--4--6--------|
B||-----4--5--6---------|-1-----------------|--------------3-----|
G||-----------------6---|-------------------|--------------------|
D||---------------------|-------------------|--------------------|
A||---------------------|-------------------|--------------------|
E||--4------------------|-1-----------------|--4-----------------|


    E  E  E  E  Q          Q   Q   E  E         Q    Q    Q  
e||----------6----------|-------------------|--------------------|
B||-6--7--9-------------|------9---7--6-----|---5----------------|
G||-------------6-------|-------------------|-------------5------|
D||---------------------|--8----------------|-------------5------|
A||-6-------------------|------8------------|--------7-----------|
E||---------------------|----------7--------|---8----------------|


      Q   E  Q.            Q    Q    Q          Q    Q    Q
e||---------------------|-------------------|-------------4------|
B||---------------------|--1----4----3------|---2----1-----------|
G||---6---5-------------|-------3-----------|--------1-----------|
D||---4---4-------------|------------2------|---2---------2------|
A||---------------------|--3----------------|--------------------|
E||---3------0----------|-------------------|--------------------|


     H         E   E      Q.    E  E  E        Q    H 
e||--3---------6--------|-------------------|--1----1------------|
B||----------------6----|-4-----4--4--5-----|--------------------|
G||---------------------|-------------------|--------------------|
D||--3------------------|-------------------|--------------------|
A||---------------------|-3-----------------|--------------------|
E||--1------------------|-------------------|--1-----------------|


     H        E   E        Q    Q    E  E       Q    Q    Q
e||-----------3---4-----|--0----------------|--------8-----------|
B||---------------------|------11---11--9---|--11---------9------|
G||---------------------|-------------------|--------------------|
D||---------------------|-------------------|--------------------|
A||---------------------|-------------------|---7----------------|
E||--4------------------|--8----------------|--------------------|


     Q    H                Q    Q    E  E       Q    Q    E  E
e||--3----4-------------|-------------------|-------11---11--9---|
B||---------------------|------------1--2---|---4----------------|
G||---------------------|--1----------------|---0----------------|
D||---------------------|------------3------|--------------------|
A||---------------------|-------3-----------|--------------------|
E||--1------------------|-------------------|--------------------|


     Q    Q    E   E       Q     Q     Q       Q.     Q    E 
e||-11----9-------------|-------------------|--------------9-----|
B||------------9--11----|-13-----------9----|--------------------|
G||---------------------|-------10----------|--------------------|
D||---------------------|-------------------|--------------------|
A||-----------11--------|--9----------------|--11-----8----------|
E||--9------------------|-------------------|--------------------|


     Q.        Q     E      Q    Q    Q        Q     Q    Q  
e||---------------------|-------------------|--------------------|
B||--8--------------11--|-(11)---9----------|--8-----------------|
G||------------7-----9--|--(9)-------10-----|--6-----7----9------|
D||-----------------11--|-(11)--------------|--------------------|
A||--7--------------10--|-(10)--------------|--------------------|
E||---------------------|-------------------|--8-----------------|


     Q     Q    Q          Q     H             H         Q
e||---------------------|-------------------|--------------------|
B||--------8----9-------|-10----10----------|--------------------|
G||--10-----------------|--8----------------|--9--------10-------|
D||---------------------|-10----------------|-11-----------------|
A||---------------------|--0----------------|-10-----------------|
E||---------------------|-------------------|--9-----------------|


    H.                     H.                  Q     Q    Q
e||-0-------------------|-------------------|--------------------|
B||---------------------|-------------------|--------------------|
G||---------------------|-------------------|--------------------|
D||-0-------------------|-------------------|--------5----5------|
A||---------------------|-0-----------------|--1-----------------|
E||---------------------|-------------------|--------------------|


     Q     Q    E  E      Q     Q     Q        H        E  E  E 
e||---------------------|-------------------|--------------------|
B||-------------2--1----|-------------------|--------------------|
G||---------------------|-0-----------------|--------------------|
D||--3-----5------------|-------------3-----|-----------X--2--0--|
A||---------------------|-------5-----------|--0-----------------|
E||--1------------------|-3-----------------|--------------------|


     H.                   H.                   H.  
e||---------------------|-------------------|--------------------|
B||---------------------|-------------------|--2-----------------|
G||--3------------------|-------------------|--------------------|
D||---------------------|-3-----------------|--------------------|
A||--4------------------|-1-----------------|--------------------|
E||---------------------|-------------------|--3-----------------|


     Q.      Q     S S     Q    Q    E  E      Q     Q     E  E
e||---------------------|-------6----6--4---|--------------------|
B||----------4-----3-2--|-------------------|--8-----------------|
G||---------------------|--5----------------|--------8-----8-10--|
D||---------------------|-------------------|--------------------|
A||--4------------------|-------------------|--6-----------------|
E||---------------------|--4----------------|--------------5-----|


     Q      H             Q.     E  E  E       E  E  E  E  E  E
e||---------------------|--------1--3--4----|-------11----11--9--|
B||--6------6-----------|--------2----------|--------------------|
G||---------------------|-------------------|--8-----------------|
D||---------------------|-------------------|----10--------------|
A||---------------------|-------------------|----------11--------|
E||--6------------------|-1-----------------|--8-----------------|


    E  E  E  Q.           H          E  E     
e||13-------------------|-------------------||
B||---------------------|-----------13------||
G||-------9-------------|-X------------13---||
D||---11-----10---------|-------------------||
A||10--------10---------|-------------------||
E||-----------8---------|-------------------||


Bayonetta - The Gates of Hell
Arrangement by Matías Uriel Rolón
If you record yourself playing it send me a message or something xD
Hope you enjoyed it ^.^






Login or Register to remove this ad.