Bonus Stage 1 & Last Battle (Battletoads in Battlemaniacs) Bass Tab

Submitted: Mar 26, 2010 by RexLeRouge

0
Download | Listen
Game: Battletoads in Battlemaniacs
Composer(s): Dave Wise
Style: Transcription

AutoScroll: Slow | Medium | Fast
                    Bonus Stage 1 & Last Battle                           


Basse
     E  E  H.              W                   E  E  H.            
G||---------------------|-------------------|---------------------|
D||---------------------|-------------------|---------------------|
A||---------------------|-------------------|---------------------|
E||--4--4--L------------|--L----------------|--3--3--L------------|


  W                     E  E  E  E  E  E  E  E     E  E  E  E  E  E  E  E   
-------------------||---------------------------|--------------------------|
-------------------||*--------------------------|--------------------------|
-------------------||*--------------------------|--------------------------|
--L----------------||---3--3--3--3--3--3--3--3--|--3--3--3--3--3--3--3--3--|


  E  E  E  E  E  E  E  E     E  E  E  E  E  E  E  E   
--------------------------|--------------------------|
--------------------------|--------------------------|
--------------------------|--------------------------|
--3--3--3--3--3--3--3--3--|--3--3--3--3--3--3--5--5--|


  E  E  E  E  E  E  E  E     E  E  E  E  E  E  E  E   
--------------------------|--------------------------|
--------------------------|--------------------------|
--------------------------|--------------------------|
--6--6--6--6--6--6--6--6--|--6--6--6--6--6--6--6--6--|


  E  E  E  E  E  E  E  E     E  E  E  E  E  E  E  E     
--------------------------|---------------------------||
--------------------------|--------------------------*||
--------------------------|--------------------------*||
--6--6--6--6--6--6--6--6--|--6--6--6--6--6--6--5--5---||


   E  E  E  E  E  E  E  E     E  E  E  E  E  E  E  E   
---------------------------|--------------------------|
*--------------------------|--------------------------|
*--6--6--6--6--6--6--6--6--|--5--5--5--5--5--5--5--5--|
---------------------------|--------------------------|


  E  E  E  E  E  E  E  E     E  E  E  E  E  E  E  E     
--------------------------|---------------------------||
--------------------------|--------------------------*||
--------------------------|--------------------------*||
--3--3--3--3--3--3--3--3--|--3--3--3--3--3--3--3--3---||


  E  E  E  E  E  E  E  E     E  E  H.             
--------------------------|---------------------||
--------------------------|---------------------||
--6--6--6--6--6--6--6--6--|---------------------||
--------------------------|--1------------------||




Duration Legend
---------------
W - whole
H - half
Q - quarter
E - 8th
S - 16th
T - 32nd
X - 64th
. - note dotted
|-n-|  - n-tuplets
Login or Register to remove this ad.