Bonus Stage 1 & Last Battle (Battletoads in Battlemaniacs) Guitar Tab

Submitted: Mar 26, 2010 by RexLeRouge (Last updated: Mar 26, 2010)

0
Download | Listen
Game: Battletoads in Battlemaniacs
Composer(s): Dave Wise
Style: Alternate picking, Transcription

AutoScroll: Slow | Medium | Fast
                          Bonus Stage 1 & Last Battle                           


Guitare
     E  E  H.              W                   E  E  H.            
E||---------------------|-------------------|---------------------|
B||---------------------|-------------------|---------------------|
G||---------------------|-------------------|---------------------|
D||--6--6--L------------|--L----------------|--5--5--L------------|
A||--6--6--L------------|--L----------------|--5--5--L------------|
E||---------------------|-------------------|---------------------|


  W                     Q    H.              E   E  Q     Q     Q     
-------------------||---------------------|--------------------------|
-------------------||---------------------|--------------------------|
-------------------||*--------------------|-----12-------12----10----|
--L----------------||*--5-----------------|-----12-------12----10----|
--L----------------||---5-----------------|-----10-------10-----8----|
-------------------||---3-----------------|--------------------------|


  Q    H.              E   E  Q     Q     Q       Q    H.            
--------------------|--------------------------|--------------------|
--------------------|--------------------------|--------------------|
--------------------|-----12-------12----10----|--------------------|
--5-----------------|-----12-------12----10----|--8-----------------|
--5-----------------|-----10-------10-----8----|--8-----------------|
--3-----------------|--------------------------|--6-----------------|


  E  E  Q    Q     Q       Q    H.              E  E  Q    Q    Q       
------------------------|--------------------|------------------------||
------------------------|--------------------|------------------------||
------------------------|--------------------|-----------------------*||
-----8-------8----10----|--8-----------------|-----8-------8----7----*||
-----8-------8----10----|--8-----------------|-----8-------8----7-----||
-----6-------6-----8----|--6-----------------|-----6-------6----5-----||


   Q    Q    Q    Q        Q     Q    Q     Q       Q    Q     Q     Q     
-----------------------|-------------------------|------------------------|
-----------------------|-------------------------|------------------------|
*--8----8---------8----|--10----10---------10----|------------12----10----|
*--8----8---------8----|--10----10---------10----|--5---------12----10----|
---6----6---------6----|---8-----8----------8----|--5---------10-----8----|
-----------------------|-------------------------|--3---------------------|


  Q    Q     Q     Q         Q    Q    Q    Q        Q    H.             
-------------------------||----------------------|---------------------||
-------------------------||----------------------|---------------------||
------------12----10----*||--8----8---------8----|--10-----------------||
--5---------12----10----*||--8----8---------8----|--10-----------------||
--5---------10-----8-----||--6----6---------6----|---8-----------------||
--3----------------------||----------------------|---------------------||




Mélodie
     W                   W                   W                 
E||-------------------|-------------------|-------------------|
B||-------------------|-------------------|-------------------|
G||-------------------|-------------------|-------------------|
D||-------------------|-------------------|-------------------|
A||-------------------|-------------------|-------------------|
E||-------------------|-------------------|-------------------|


  W                     E  E  E  E  E  E  E  E     W                 
-------------------||---------------------------|-------------------|
-------------------||---------------------------|-------------------|
-------------------||*--------------3--2--------|-------------------|
-------------------||*--------3-----------3--5--|-------------------|
-------------------||------5-----5--------------|-------------------|
-------------------||---------------------------|-------------------|


  E  E  E  E  E  E  E  E     W                   E  E  E  E  E  E  E  E   
--------------------------|-------------------|--------------------------|
--------------------------|-------------------|-----6--6--6--5--5--6-----|
--------------3--2--------|-------------------|-----------------------7--|
--------3-----------3--5--|-------------------|--------------------------|
-----5-----5--------------|-------------------|--------------------------|
--------------------------|-------------------|--------------------------|


  E  E  E  E  E  E  E  E     E  E  E  E  E  E  E  E   
--------------------------|--------------------------|
-----6-----6--5--5--------|-----6--6--6--5--5--6-----|
--------------------5--5--|-----------------------7--|
--------------------------|--------------------------|
--------------------------|--------------------------|
--------------------------|--------------------------|


  E  E  E  E  E  E  E  E        Q    E  E  E  E  E  E   
---------------------------||--------3--5--6--5--3-----|
-----6-----6--5--5---------||-----------------------6--|
--------------------5--5--*||*-------------------------|
--------------------------*||*-------------------------|
---------------------------||--------------------------|
---------------------------||--------------------------|


  Q    E  E  E  E  Q       E   E   E   E   E   E   Q     
-------3--5--6--5--6----|-----15--13----------13--------|
------------------------|-------------15--13------15----|
------------------------|-------------------------------|
------------------------|-------------------------------|
------------------------|-------------------------------|
------------------------|-------------------------------|


  E   E   E   E   E   E   Q         Q    E  E  E  E  E  E   
-----15--13----------13---------||-------3--5--6--5--3-----|
-------------15--13------15-----||----------------------6--|
-------------------------------*||-------------------------|
-------------------------------*||-------------------------|
--------------------------------||-------------------------|
--------------------------------||-------------------------|


  W                  
-------------------||
-------------------||
-------------------||
-------------------||
-------------------||
-------------------||




Duration Legend
---------------
W - whole
H - half
Q - quarter
E - 8th
S - 16th
T - 32nd
X - 64th
. - note dotted
|-n-|  - n-tuplets

Login or Register to remove this ad.