Stage 5 (SongeLeReveur Version) (Battletoads & Double Dragon: The Ultimate Team) Bass/Guitar Tab

Submitted: Jul 27, 2010 by ForestMarth (Last updated: Jul 27, 2010)

5
Average: 5 (4 votes)
Download | Listen
Game: Battletoads & Double Dragon: The Ultimate Team
Composer(s): Dave Wise
Style: 2 or more instruments, Arrangement, Transcription, Tremolo

AutoScroll: Slow | Medium | Fast
                    Battletoads & Double Dragon: The Ultimate Team - Stage 5

Composed by : Dave Wise (sometimes he's also called David Wise)

Arranged by : SongeLeReveur

Tabbed by : ForestMarth

Platform : NES (originally)


I'm sorry but rythm is not respected (here and in the Guitar Pro file).
Don't hesitate to take this tab and put it rythm ! :-)
Look at SongeLeReveur video to hear the rythm.




Guitar 1



          
E||------------------------------------------------------------------------
B||------------------------------------------------------------------------
G||--2--2--2--2--2----4------2--2--2--2--2----4------2--2--2--2--2----4----
D||--2--2--2--2--2----4------2--2--2--2--2----4------2--2--2--2--2----4----
A||--0--0--0--0--0----2------0--0--0--0--0----2------0--0--0--0--0----2----
E||------------------------------------------------------------------------


                             PM PM PM PM PM PM PM   PM PM PM PM PM PM PM PM  
     
----------------------------------------------------------------------------
----------------------------------------------------------------------------
--2--2--2--2--2----4------6-------------------------------------------------
--2--2--2--2--2----4------6-------------------------------------------------
--0--0--0--0--0----2------4--4--4--4--4--4--4--4----4--4--4--4--4--------2--
-------------------------------------------------------------------2--4-----


  PM PM PM PM PM PM PM PM   PM PM PM PM PM             
     
------------------------------------------------------
------------------------------------------------------
-------------------------------------------6g9--9-----
-------------------------------------------6g9--9-----
--4--4--4--4--4--4--4--4----4--4--4--4--4--4g7--7-----
------------------------------------------------------


  PM PM PM PM      PM PM   PM PM PM PM      PM PM   PM PM PM PM      PM PM  
     
---------------------------------------------------------------------------
---------------------------------------------------------------------------
--------------6-------------------------------------------------6----------
--------------6------------------------6------------------------6----------
--------2-----4----4--4----------2-----6------------------2-----4----4--4--
--2--4-----4---------------2--4-----2--4----4--4----2--4-----4-------------


  PM                    PM PM PM PM      PM PM   PM PM PM PM      PM PM  
     
------------------------------------------------------------------------
------------------------------------------------------------------------
------------------------------------6-----------------------------------
-------7----7----9------------------6------------------------6----------
-------7----7----9------------2-----4----4--4----------2-----6----------
--2----5----5----7------2--4-----4---------------2--4-----2--4----4--4--


  PM PM PM PM      PM PM   PM                    PM PM PM PM PM PM PM PM  
     
-------------------------------------------------------------------------
-------------------------------------------------------------------------
--------------6----------------------------------------------------------
--------------6-----------------7----7----9------------------------------
--------2-----4----4--4---------7----7----9------4--4--4--4--4--4--4--4--
--2--4-----4---------------2----5----5----7------2--2--2--2--2--2--2--2--


  PM PM PM PM PM PM PM PM   PM PM PM PM PM PM PM PM  
     
----------------------------------------------------
----------------------------------------------------
----------------------------------------------------
----------------------------------------------------
--7--7--7--7--9--9--9--9----4--4--4--4--4--4--4--4--
--5--5--5--5--7--7--7--7----2--2--2--2--2--2--2--2--


  PM PM PM PM PM PM PM PM   PM PM PM PM PM PM PM PM  
     
----------------------------------------------------
----------------------------------------------------
----------------------------------------------------
----------------------------------------------------
--7--7--7--7--9--9--9--9----4--4--4--4--4--4--4--4--
--5--5--5--5--7--7--7--7----2--2--2--2--2--2--2--2--


  PM PM PM PM PM PM PM PM   PM PM PM PM PM PM PM PM  
     
----------------------------------------------------
----------------------------------------------------
----------------------------------------------------
----------------------------------------------------
--7--7--7--7--9--9--9--9----4--4--4--4--4--4--4--4--
--5--5--5--5--7--7--7--7----2--2--2--2--2--2--2--2--


  PM PM PM PM PM PM PM PM                                                      
       
----------------------------------------------------------------------------
----------------------------------------------------------------------------
----------------------------------------------------------------------------
----------------------------------------------------------------------------
--7--7--7--7--9--9--9--9----4--4--2-----2------------4--4--2----------------
--5--5--5--5--7--7--7--7-------------4-----4------------------0--2--4-------


       
--------------------------------------------------------------------------
--------------------------------------------------------------------------
--------------------------------------------------------------------------
---------------------------------------4----------------------------------
--4--4--2-----2------------4--4--------4-----------4--4--2-----2----------
-----------4-----4---------------0--1--2--------------------4-----4-------


       
--------------------------------------------------------------------------
--------------------------------------------------------------------------
--------------------------------------------------------------------------
----------------------------------------------------------------4---------
--4--4--2------------------4--4--2-----2------------4--4--------4---------
-----------0--2--4------------------4-----4---------------0--1--2---------


                     PM PM PM PM PM PM PM PM   PM PM PM PM PM PM PM PM  
     
-----------------------------------------------------------------------
-----------------------------------------------------------------------
-----------------------------------------------------------------------
-----------------------------------------------------------------------
---------------------2--2--2--2--2--2--2--2----2--2--2--2--2--2--2--2--
-----------------------------------------------------------------------


       
------------------------------------------------------------------------
------------------------------------------------------------------------
--2--2--2--2--2----4------2--2--2--2--2----4------2--2--2--2--2----4----
--2--2--2--2--2----4------2--2--2--2--2----4------2--2--2--2--2----4----
--0--0--0--0--0----2------0--0--0--0--0----2------0--0--0--0--0----2----
------------------------------------------------------------------------


                             PM PM PM PM PM PM PM   PM PM PM PM PM PM PM PM  
     
----------------------------------------------------------------------------
----------------------------------------------------------------------------
--2--2--2--2--2----4------6-------------------------------------------------
--2--2--2--2--2----4------6-------------------------------------------------
--0--0--0--0--0----2------4--4--4--4--4--4--4--4----4--4--4--4--4--------2--
-------------------------------------------------------------------2--4-----


  PM PM PM PM PM PM PM PM   PM PM PM PM PM             
     
------------------------------------------------------
------------------------------------------------------
-------------------------------------------6g9--9-----
-------------------------------------------6g9--9-----
--4--4--4--4--4--4--4--4----4--4--4--4--4--4g7--7-----
------------------------------------------------------


  PM PM PM PM      PM PM   PM PM PM PM      PM PM   PM PM PM PM      PM PM  
     
---------------------------------------------------------------------------
---------------------------------------------------------------------------
--------------6-------------------------------------------------6----------
--------------6------------------------6------------------------6----------
--------2-----4----4--4----------2-----6------------------2-----4----4--4--
--2--4-----4---------------2--4-----2--4----4--4----2--4-----4-------------


  PM                    PM PM PM PM      PM PM   PM PM PM PM      PM PM  
     
------------------------------------------------------------------------
------------------------------------------------------------------------
------------------------------------6-----------------------------------
-------7----7----9------------------6------------------------6----------
-------7----7----9------------2-----4----4--4----------2-----6----------
--2----5----5----7------2--4-----4---------------2--4-----2--4----4--4--


  PM PM PM PM      PM PM   PM                    PM PM PM PM PM PM PM PM  
     
-------------------------------------------------------------------------
-------------------------------------------------------------------------
--------------6----------------------------------------------------------
--------------6-----------------7----7----9------------------------------
--------2-----4----4--4---------7----7----9------4--4--4--4--4--4--4--4--
--2--4-----4---------------2----5----5----7------2--2--2--2--2--2--2--2--


  PM PM PM PM PM PM PM PM   PM PM PM PM PM PM PM PM  
     
----------------------------------------------------
----------------------------------------------------
----------------------------------------------------
----------------------------------------------------
--7--7--7--7--9--9--9--9----4--4--4--4--4--4--4--4--
--5--5--5--5--7--7--7--7----2--2--2--2--2--2--2--2--


  PM PM PM PM PM PM PM PM   PM PM PM PM PM PM PM PM  
     
----------------------------------------------------
----------------------------------------------------
----------------------------------------------------
----------------------------------------------------
--7--7--7--7--9--9--9--9----4--4--4--4--4--4--4--4--
--5--5--5--5--7--7--7--7----2--2--2--2--2--2--2--2--


  PM PM PM PM PM PM PM PM   PM PM PM PM PM PM PM PM  
     
----------------------------------------------------
----------------------------------------------------
----------------------------------------------------
----------------------------------------------------
--7--7--7--7--9--9--9--9----4--4--4--4--4--4--4--4--
--5--5--5--5--7--7--7--7----2--2--2--2--2--2--2--2--


  PM PM PM PM PM PM PM PM                                                      
       
----------------------------------------------------------------------------
----------------------------------------------------------------------------
----------------------------------------------------------------------------
----------------------------------------------------------------------------
--7--7--7--7--9--9--9--9----4--4--2-----2------------4--4--2----------------
--5--5--5--5--7--7--7--7-------------4-----4------------------0--2--4-------


       
--------------------------------------------------------------------------
--------------------------------------------------------------------------
--------------------------------------------------------------------------
---------------------------------------4----------------------------------
--4--4--2-----2------------4--4--------4-----------4--4--2-----2----------
-----------4-----4---------------0--1--2--------------------4-----4-------


              
----------------------------------------------------------------------|
----------------------------------------------------------------------|
----------------------------------------------------6-----------------|
----------------------------------------------------6-----------------|
--4--4--2------------------4--4--2-----2------------4-----------------|
-----------0--2--4------------------4-----4---------------------------|




Guitar 2



           
E||--------------------------------------------------------------------------
B||------------------------------------------------------5----5----4---------
G||---9----11----13----11-------9----11----13----11---------------------4----
D||--11----13----14----13------11----13----14----13--------------------------
A||--------------------------------------------------------------------------
E||--------------------------------------------------------------------------


       
------------------------------------------------------------------
------------------------5----5----4-------------------------------
------------4----6---------------------4----------------4----4----
--6----6--------------------------------------6----6--------------
------------------------------------------------------------------
------------------------------------------------------------------


           
---------------------12----7----12-----9-------9----11-------------
---------------------12----7----12----10------10----12-------------
---------------------11----6----11-----9-------9----11-------------
-------------------------------------------------------------------
-------------------------------------------------------------------
-------------------------------------------------------------------


  ^    ^    ^           ^    ^    ^                              
                   
--0----0----0-----------0----0----0----------------------------
--2----4----2-----------2----4----2----------------------------
--2----4----2-----------2----4----2----------------------------
--2----4----2-----------2----4----2----------------------------
---------------------------------------------------------------
---------------------------------------------------------------


       
-----------------0-------------------------------------------0----
------------0-----------0-------------------------------0---------
-------6---------------------6---------------------8--------------
--7-------------------------------7-----------9-------------------
------------------------------------------------------------------
------------------------------------------------------------------


       
----------------------------------------0---------------------------
--0--------------------------------0-----------0--------------------
-------8----------------------9---------------------9---------------
------------9-----------11-------------------------------11---------
--------------------------------------------------------------------
--------------------------------------------------------------------


        
-------------------0-----------------------------------------------0----
--------------0-----------0-----------------------------------0---------
--------11---------------------11-----------------------13--------------
--13---------------------------------13-----------14--------------------
------------------------------------------------------------------------
------------------------------------------------------------------------


       
-------------------------------------------0----------------------------
--0-----------------------------------0-----------0---------------------
-------13-----------------------11---------------------11---------------
-------------14-----------13---------------------------------13---------
------------------------------------------------------------------------
------------------------------------------------------------------------


       
-----------------------------------------------------------------------
-----------------------------------------------------------------------
----------------------9----11----13----11-------9----11----13----11----
---------------------11----13----14----13------11----13----14----13----
-----------------------------------------------------------------------
-----------------------------------------------------------------------


       
------------------------------------------------------------------
--5----5----4---------------------------------5----5----4---------
-----------------4----------------4----6---------------------4----
------------------------6----6------------------------------------
------------------------------------------------------------------
------------------------------------------------------------------


       
-------------------------------------------12----7----12-----9----
-------------------------------------------12----7----12----10----
------------4----4-------------------------11----6----11-----9----
--6----6----------------------------------------------------------
------------------------------------------------------------------
------------------------------------------------------------------


                         ^    ^    ^           ^    ^    ^                  
                
---9----11---------------0----0----0-----------0----0----0---------|
--10----12---------------2----4----2-----------2----4----2---------|
---9----11---------------2----4----2-----------2----4----2---------|
-------------------------2----4----2-----------2----4----2---------|
-------------------------------------------------------------------|
-------------------------------------------------------------------|




Guitar 3



              
E||--14g16----16----16----14--------------------------------
B||-------------------------------17----17----16br----12----
G||---------------------------------------------------------
D||---------------------------------------------------------
A||---------------------------------------------------------
E||---------------------------------------------------------


            
--14g16----16----16----14----------------------------------
-------------------------------17----12g14----17----17b----
-----------------------------------------------------------
-----------------------------------------------------------
-----------------------------------------------------------
-----------------------------------------------------------


            
--14g16----16----16----14----------------------------------
-------------------------------17----12g14----17----16b----
-----------------------------------------------------------
-----------------------------------------------------------
-----------------------------------------------------------
-----------------------------------------------------------


                       
--14g16----16----16----14------------16g19----16-----------------------------
-------------------------------17-------------------19-----------------------
-----------------------------------------------------------------------------
-----------------------------------------------------------------------------
-----------------------------------------------------------------------------
-----------------------------------------------------------------------------


        
----------------------------------------------------
----------------------------------19----------19----
--18----20----21----20------21----------21----------
----------------------------------------------------
----------------------------------------------------
----------------------------------------------------


                    
----------------------------19----21----23----24-----------------------
--21----19----21----22-------------------------------------------------
-----------------------------------------------------------------------
-----------------------------------------------------------------------
-----------------------------------------------------------------------
-----------------------------------------------------------------------


           
--14g16----16----16----14--------------------------------
-------------------------------17----17----16br----12----
---------------------------------------------------------
---------------------------------------------------------
---------------------------------------------------------
---------------------------------------------------------


            
--14g16----16----16----14----------------------------------
-------------------------------17----12g14----17----17b----
-----------------------------------------------------------
-----------------------------------------------------------
-----------------------------------------------------------
-----------------------------------------------------------


            
--14g16----16----16----14----------------------------------
-------------------------------17----12g14----17----16b----
-----------------------------------------------------------
-----------------------------------------------------------
-----------------------------------------------------------
-----------------------------------------------------------


           
--14g16----16----16----14------------16g19----16----------
-------------------------------17-------------------19----
----------------------------------------------------------
----------------------------------------------------------
----------------------------------------------------------
----------------------------------------------------------


                        TP                                                     
                                                         
--19b------------------19b----------------|
------------------------------------------|
------------------------------------------|
------------------------------------------|
------------------------------------------|
------------------------------------------|




Bass



          
G||------------------------------------------------------------------------
D||------------------------------------------------------------------------
A||--0--0--0--0--0----2------0--0--0--0--0----2------0--0--0--0--0----2----
E||------------------------------------------------------------------------


     
----------------------------------------------------------------------------
----------------------------------------------------------------------------
--0--0--0--0--0----2------4--4--4--4--4--4--4--4----4--4--4--4--4--------2--
-------------------------------------------------------------------2--4-----


     
------------------------------------------------------
------------------------------------------------------
--4--4--4--4--4--4--4--4----4--4--4--4--4--4g7--7-----
------------------------------------------------------


     
---------------------------------------------------------------------------
---------------------------------------------------------------------------
--------2-----4----4--4----------2------------------------2-----4----4--4--
--2--4-----4---------------2--4-----2--4----4--4----2--4-----4-------------


     
------------------------------------------------------------------------
------------------------------------------------------------------------
-------0----0----2------------2-----4----4--4----------2----------------
--2---------------------2--4-----4---------------2--4-----2--4----4--4--


     
-------------------------------------------------------------------------
-------------------------------------------------------------------------
--------2-----4----4--4---------0----0----2------------------------------
--2--4-----4---------------2---------------------2--2--2--2--2--2--2--2--


     
----------------------------------------------------
----------------------------------------------------
--0--0--0--0--2--2--2--2----------------------------
----------------------------2--2--2--2--2--2--2--2--


     
----------------------------------------------------
----------------------------------------------------
--0--0--0--0--2--2--2--2----------------------------
----------------------------2--2--2--2--2--2--2--2--


     
----------------------------------------------------
----------------------------------------------------
--0--0--0--0--2--2--2--2----------------------------
----------------------------2--2--2--2--2--2--2--2--


       
----------------------------------------------------------------------------
----------------------------------------------------------------------------
--0--0--0--0--2--2--2--2----4--4--2-----2------------4--4--2----------------
-------------------------------------4-----4------------------0--2--4-------


       
--------------------------------------------------------------------------
--------------------------------------------------------------------------
--4--4--2-----2------------4--4--------------------4--4--2-----2----------
-----------4-----4---------------0--1--2--------------------4-----4-------


       
--------------------------------------------------------------------------
--------------------------------------------------------------------------
--4--4--2------------------4--4--2-----2------------4--4------------------
-----------0--2--4------------------4-----4---------------0--1--2---------


     
----------------------------------------------------
----------------------------------------------------
--0--0--0--0--0--0--0--0----0--0--0--0--0--0--0--0--
----------------------------------------------------


      
--------------------------------------------------------------------
--------------------------------------------------------------------
--0--0--0--0--0--0--0--0----(2)--(2)--(2)--(2)--(2)--(2)--(2)--(2)--
--------------------------------------------------------------------


        
------------------------------------------------------------------
------------------------------------------------------------------
--(2)--(2)--(2)--(2)--(2)--(2)--(2)--(2)----0--0--0--0--0----2----
------------------------------------------------------------------


       
------------------------------------------------------------------------
------------------------------------------------------------------------
--0--0--0--0--0----2------0--0--0--0--0----2------0--0--0--0--0----2----
------------------------------------------------------------------------


     
----------------------------------------------------
----------------------------------------------------
--4--4--4--4--4--4--4--4----4--4--4--4--4--------2--
-------------------------------------------2--4-----


     
------------------------------------------------------
------------------------------------------------------
--4--4--4--4--4--4--4--4----4--4--4--4--4--4g7--7-----
------------------------------------------------------


     
---------------------------------------------------------------------------
---------------------------------------------------------------------------
--------2-----4----4--4----------2------------------------2-----4----4--4--
--2--4-----4---------------2--4-----2--4----4--4----2--4-----4-------------


     
------------------------------------------------------------------------
------------------------------------------------------------------------
-------0----0----2------------2-----4----4--4----------2----------------
--2---------------------2--4-----4---------------2--4-----2--4----4--4--


     
-------------------------------------------------------------------------
-------------------------------------------------------------------------
--------2-----4----4--4---------0----0----2------------------------------
--2--4-----4---------------2---------------------2--2--2--2--2--2--2--2--


     
----------------------------------------------------
----------------------------------------------------
--0--0--0--0--2--2--2--2----------------------------
----------------------------2--2--2--2--2--2--2--2--


     
----------------------------------------------------
----------------------------------------------------
--0--0--0--0--2--2--2--2----------------------------
----------------------------2--2--2--2--2--2--2--2--


     
----------------------------------------------------
----------------------------------------------------
--0--0--0--0--2--2--2--2----------------------------
----------------------------2--2--2--2--2--2--2--2--


       
----------------------------------------------------------------------------
----------------------------------------------------------------------------
--0--0--0--0--2--2--2--2----4--4--2-----2------------4--4--2----------------
-------------------------------------4-----4------------------0--2--4-------


       
--------------------------------------------------------------------------
--------------------------------------------------------------------------
--4--4--2-----2------------4--4--------------------4--4--2-----2----------
-----------4-----4---------------0--1--2--------------------4-----4-------


               
----------------------------------------------------------------------|
----------------------------------------------------------------------|
--4--4--2------------------4--4--2-----2------------4-----------------|
-----------0--2--4------------------4-----4---------------------------|




Synthesizer



          
E||-------------------------------------------------------------------
B||------------7-----------10----9----7---------------------7---------
G||--8----9---------------------------------------8----9--------------
D||-------------------------------------------------------------------
A||-------------------------------------------------------------------
E||-------------------------------------------------------------------


        
----------------------------------------------------------------
--10----9----7--------------------------------------------------
--------------------------------------------9----8--------------
------------------------------------------------------9---------
----------------------------------------------------------------
----------------------------------------------------------------


       
------------------------------------------------------------------
--------------------------------------------------------7---------
------------6-----------9----8---------6------6----9--------------
--6----9--------------------------9-------------------------------
------------------------------------------------------------------
------------------------------------------------------------------


       
------------------------------------------------------------------
---------------------7----------------------9-----10----9----7----
--------------------------9----8-------6--------------------------
------------------------------------9-----------------------------
------------------------------------------------------------------
------------------------------------------------------------------


       
--------7--------------------------------------------------------
-------------------------------------------------------7---------
--8--9--------9------------------------------8----9--------------
-----------------------------------------------------------------
-----------------------------------------------------------------
-----------------------------------------------------------------


        
--------------------------------------------------------------------
--10----9----7---------------------7-----------10----9----7---------
-------------------------8----9-------------------------------------
--------------------------------------------------------------------
--------------------------------------------------------------------
--------------------------------------------------------------------


       
---------------------------------------------------------------
---------------------------------------------------------------
---------------------9----8--------------------------6---------
-------------------------------9-----------6----9--------------
---------------------------------------------------------------
---------------------------------------------------------------


                                       
--------------------------------------------|
----------------------------------7---------|
--9----8---------6------6----9--------------|
------------9-------------------------------|
--------------------------------------------|
--------------------------------------------|




Tablature Legend
----------------
L - tied note
x - dead note
g - grace note
(n) - ghost note
> - accentuded note
NH - natural harmonic
AH - artificial harmonic
TH - tapped harmonic
SH - semi harmonic
PH - pitch harmonic
h - hammer on
p - pull off
b - bend
br - bendRelease
pb - preBend
pbr - preBendRelease
brb - bendReleaseBend
\n/ - tremolo bar dip
\n - tremolo bar dive
-/n - tremolo bar Release up
/n\ - tremolo bar inverted dip
/n - tremolo bar return
-\n - tremolo bar Release down
S - shift slide
s - legato slide
/ -  slide into from below or out of upwards
\ -  slide into from above or out of downwards
~ - vibrato
W - wide vibrato
tr - trill
TP - tremolo picking
T - tapping
S - slap
P - pop
< - fade in
^ - brush up
v - brush down
PM - palm mute
Login or Register to remove this ad.