Stage 1 (SongeLeReveur Version) (Battletoads & Double Dragon: The Ultimate Team) Bass/Guitar Tab

Submitted: Jul 04, 2010 by ForestMarth (Last updated: Jul 05, 2010)

5
Average: 5 (1 vote)
Download | Listen
Game: Battletoads & Double Dragon: The Ultimate Team
Composer(s): Dave Wise
Style: 2 or more instruments, Arrangement, Transcription

AutoScroll: Slow | Medium | Fast
                    Battletoads & Double Dragon: The Ultimate Team - Stage 1                       


Composed by : Dave Wise (sometimes he's also called David Wise)

Arranged by : Songe Le Rêveur

Tabbed by : ForestMarth

Platform : NES (originally)


I'm sorry but rythm is not respected (here and in the Guitar Pro file).
Don't hesitate to take this tab and put it rythm ! :-)
Look at SongeLeReveur video to hear the rythm.



Guitar 1



         
E||--12\----10\-----8\----10\------12\----10\-----8\----10\----
B||--13\----12\----10\----12\------13\----12\----10\----12\----
G||------------------------------------------------------------
D||------------------------------------------------------------
A||------------------------------------------------------------
E||------------------------------------------------------------


      
--12----12----12-----8-------8----10---------------0----------------------
--13----13----13----10------10----12--------------------10----13----12----
--------------------------------------------------------------------------
--------------------------------------------------------------------------
--------------------------------------------------------------------------
--------------------------------------------------------------------------


        
-----------------------------------------------------------------------------
--13----12----------0--------------------------------------------------------
--------------12-----------------12----11----12------11----------------10----
---------------------------12------------------------------12----12----------
-----------------------------------------------------------------------------
-----------------------------------------------------------------------------


       
---------------------------------------------------------------------------
--11----10-----------------------------------------------------------------
--------------10------------------------10------------10----12-------------
--------------------10------10----12----------12---------------------------
---------------------------------------------------------------------------
---------------------------------------------------------------------------


    
--0-------------------------------------------------------------------------
-------10----13----12------13----12----------0------------------------------
---------------------------------------12-----------------12----11----12----
----------------------------------------------------12----------------------
----------------------------------------------------------------------------
----------------------------------------------------------------------------


        
----------------------------------------------------
----------------------------11----10----------------
--11----------------10------------------10----------
--------12----12------------------------------10----
----------------------------------------------------
----------------------------------------------------


        
---------------------------------------------------12----12----12-----8----
---------------------------------------------------13----13----13----10----
--------------10------------10----12---------------------------------------
--10----12----------12-----------------------------------------------------
---------------------------------------------------------------------------
---------------------------------------------------------------------------


         
---8----10---------------12----12----12-----8-------8----10-------------
--10----12---------------13----13----13----10------10----12-------------
------------------------------------------------------------------------
------------------------------------------------------------------------
------------------------------------------------------------------------
------------------------------------------------------------------------


      
--0-------------------------------------------------------------------------
-------10----13----12------13----12----------0------------------------------
---------------------------------------12-----------------12----11----12----
----------------------------------------------------12----------------------
----------------------------------------------------------------------------
----------------------------------------------------------------------------


      
----------------------------------------------------
----------------------------11----10----------------
--11----------------10------------------10----------
--------12----12------------------------------10----
----------------------------------------------------
----------------------------------------------------


      
---------------------------------------------------0----------------------
--------------------------------------------------------10----13----12----
--------------10------------10----12--------------------------------------
--10----12----------12----------------------------------------------------
--------------------------------------------------------------------------
--------------------------------------------------------------------------


        
-----------------------------------------------------------------------------
--13----12----------0--------------------------------------------------------
--------------12-----------------12----11----12------11----------------10----
---------------------------12------------------------------12----12----------
-----------------------------------------------------------------------------
-----------------------------------------------------------------------------


           
---------------------------------------------------------------------------
--11----10-----------------------------------------------------------------
--------------10------------------------10------------10----12-------------
--------------------10------10----12----------12---------------------------
---------------------------------------------------------------------------
---------------------------------------------------------------------------


           
-------------0-----------------------0----------------(0)--------------------|
-----------------------1-----------------------1-------------(1)-------------|
------------------2-----------------------2----------------------------------|
--(0)h--(3)-------------------0h--3------------------------------------------|
-----------------------------------------------------------------------------|
-----------------------------------------------------------------------------|



Guitar 2



           
E||------------------------------------------------------------------
B||------------------------------------------------------------------
G||------------------------------------------------------------------
D||------------------------------------------------------------------
A||------------------------7----7----------------3----5----5----5----
E||--12\-------------------5----5----3----5----------------3----3----


       
-------------------------------------------------------------------
-------------------------------------------------------------------
-------------------------------------------------------------------
-------------------------------------------------------------------
-------------------------7----7----------------3----5----5----5----
--0----3--3--0----3------5----5----3----5----------------3----3----


      
-------------------------------------------------------------------
-------------------------------------------------------------------
-------------------------------------------------------------------
-------------------------------------------------------------------
-------------------------7----7----------------3----5----5----5----
--0----3----0----3--4----5----5----3----5----------------3----3----


      
-------------------------------------------------------------------
-------------------------------------------------------------------
-------------------------------------------------------------------
-------------------------------------------------------------------
-------------------------7----7----------------3----5----5----5----
--0----3--3--0----3------5----5----3----5----------------3----3----


           
------------------------------------------------------------------
------------------------------------------------------------------
------------------------------------------------------------------
------------------------------------------------------------------
-------------------------7----7----7----3------3----5-------------
--0----3----0----3--4----5----5----5----1------1----3-------------


     PM PM PM PM PM PM PM    PM PM PM PM PM PM PM PM  
     
----------------------------------------------------
----------------------------------------------------
----------------------------------------------------
----------------------------------------------------
----------------------------------------------------
-----3--3--3--3--3--3--3----5--5--5--5--5--5--5--5--


  PM PM PM PM PM PM PM PM    PM PM PM PM PM PM PM PM  
     
----------------------------------------------------
----------------------------------------------------
----------------------------------------------------
----------------------------------------------------
----------------------------------------------------
--0--0--0--0--0--0--0--0----6--6--6--6--6--6--6--6--


  PM PM PM PM PM PM PM PM    PM PM PM PM PM PM PM PM  
     
----------------------------------------------------
----------------------------------------------------
----------------------------------------------------
----------------------------------------------------
----------------------------------------------------
--1--1--1--1--1--1--1--1----5--5--5--5--5--5--5--5--


  PM PM PM PM PM PM PM PM    PM PM PM PM PM PM PM PM  
     
----------------------------------------------------
----------------------------------------------------
----------------------------------------------------
----------------------------------------------------
----------------------------------------------------
--0--0--0--0--0--0--0--0----6--6--6--6--6--6--6--6--


  PM PM PM PM PM PM PM PM                                                
       
----------------------------------------------------------------------
----------------------------------------------------------------------
----------------------------------------------------------------------
----------------------------------------------------------------------
----------------------------7----7----------------3----5----5----5----
--1--1--1--1--1--1--1--1----5----5----3----5----------------3----3----


       
-------------------------------------------------------------------
-------------------------------------------------------------------
-------------------------------------------------------------------
-------------------------------------------------------------------
-------------------------7----7----------------3----5----5----5----
--0----3--3--0----3------5----5----3----5----------------3----3----


       
-------------------------------------------------------------------
-------------------------------------------------------------------
-------------------------------------------------------------------
-------------------------------------------------------------------
-------------------------7----7----------------3----5----5----5----
--0----3----0----3--4----5----5----3----5----------------3----3----


       
-------------------------------------------------------------------
-------------------------------------------------------------------
-------------------------------------------------------------------
-------------------------------------------------------------------
-------------------------7----7----------------3----5----5----5----
--0----3--3--0----3------5----5----3----5----------------3----3----


         
------------------------------------------------------------------
------------------------------------------------------------------
------------------------------------------------------------------
------------------------------------------------------------------
-------------------------7----7----7----3------3----5-------------
--0----3----0----3--4----5----5----5----1------1----3-------------


     PM PM PM PM PM PM PM                                               
          
---------------------------------------------------------------------
---------------------------------------------------------------------
---------------------------------------------------------------------
---------------------------------------------------------------------
----------------------------7----7----7----3------3----5-------------
-----3--3--3--3--3--3--3----5----5----5----1------1----3-------------


     PM PM PM PM PM PM PM    PM PM PM PM PM PM PM PM  
     
----------------------------------------------------
----------------------------------------------------
----------------------------------------------------
----------------------------------------------------
----------------------------------------------------
-----3--3--3--3--3--3--3----5--5--5--5--5--5--5--5--


  PM PM PM PM PM PM PM PM    PM PM PM PM PM PM PM PM  
     
----------------------------------------------------
----------------------------------------------------
----------------------------------------------------
----------------------------------------------------
----------------------------------------------------
--0--0--0--0--0--0--0--0----6--6--6--6--6--6--6--6--


  PM PM PM PM PM PM PM PM    PM PM PM PM PM PM PM PM  
     
----------------------------------------------------
----------------------------------------------------
----------------------------------------------------
----------------------------------------------------
----------------------------------------------------
--1--1--1--1--1--1--1--1----5--5--5--5--5--5--5--5--


  PM PM PM PM PM PM PM PM    PM PM PM PM PM PM PM PM  
     
----------------------------------------------------
----------------------------------------------------
----------------------------------------------------
----------------------------------------------------
----------------------------------------------------
--0--0--0--0--0--0--0--0----6--6--6--6--6--6--6--6--


  PM PM PM PM PM PM PM PM                                                
      
----------------------------0----3----5----0------3----5----0----3----
----------------------------0----3----5----0------3----5----0----3----
----------------------------------------------------------------------
----------------------------------------------------------------------
----------------------------------------------------------------------
--1--1--1--1--1--1--1--1----------------------------------------------


                         PM   PM   PM   PM      PM   PM   PM   PM    
      
--5----0----3----5------------------------------------------------
--5----0----3----5------------------------------------------------
------------------------------------------------------------------
------------------------------------------------------------------
------------------------------------------------------------------
------------------------5----5----8----8------7----7----5----3----


  PM   PM   PM   PM      PM   PM   PM   PM                           
       
----------------------------------------------0----3----5----0----
----------------------------------------------0----3----5----0----
------------------------------------------------------------------
------------------------------------------------------------------
--5----5----------------------------------------------------------
------------5----5------3----3----3----3--------------------------


                                                PM   PM   PM   PM    
      
--3----5----0----3------5----0----3----5--------------------------
--3----5----0----3------5----0----3----5--------------------------
------------------------------------------------------------------
------------------------------------------------------------------
------------------------------------------------------------------
----------------------------------------------5----5----8----8----


  PM   PM   PM   PM      PM   PM   PM   PM      PM   PM   PM   PM    
       
------------------------------------------------------------------
------------------------------------------------------------------
------------------------------------------------------------------
------------------------------------------------------------------
------------------------5----5------------------------------------
--7----7----5----3----------------5----5------3----3----3----3----


  PM   PM   PM   PM      PM   PM   PM   PM      PM   PM   PM   PM    
       
------------------------------------------------------------------
------------------------------------------------------------------
------------------------------------------------------------------
------------------------------------------------------------------
----------------------------------------------5----5--------------
--5----5----8----8------7----7----5----3----------------5----5----


  PM   PM   PM   PM                                                  
       
------------------------------------------------------------------
------------------------------------------------------------------
------------------------------------------------------------------
------------------------------------------------------------------
------------------------7----7----------------3----5----5----5----
--3----3----3----3------5----5----3----5----------------3----3----


       
-------------------------------------------------------------------
-------------------------------------------------------------------
-------------------------------------------------------------------
-------------------------------------------------------------------
-------------------------7----7----------------3----5----5----5----
--0----3--3--0----3------5----5----3----5----------------3----3----


               
--------------------------------------------|
--------------------------------------------|
--------------------------------------------|
--------------------------------------------|
-------------------------7\-----------------|
--0----3----0----3--4----5\-----------------|




Bass



        
G||----------------------------------------------------
D||----------------------------------------------------
A||-----------------3--5-------------------------------
E||--5--5--5--5--5--------3----3--3--3--0--3--3--0--3--


     
----------------------------------------------------
----------------------------------------------------
-----------------3--5-------------------------------
--5--5--5--5--5--------3----3--3--3--0--3--0--3--4--


    
----------------------------------------------------
----------------------------------------------------
-----------------3--5-------------------------------
--5--5--5--5--5--------3----3--3--3--0--3--3--0--3--


     
----------------------------------------------------
----------------------------------------------------
-----------------3--5-------------------------------
--5--5--5--5--5--------3----3--3--3--0--3--0--3--4--


    
----------------------------------------------------
----------------------------------------------------
-----------------3--5-------------------------------
--5--5--5--5--5--------3----3--3--3--0--3--3--0--3--


     
----------------------------------------------------
----------------------------------------------------
-----------------3--5-------------------------------
--5--5--5--5--5--------3----3--3--3--0--3--0--3--4--


     
----------------------------------------------------
----------------------------------------------------
-----------------3--5-------------------------------
--5--5--5--5--5--------3----3--3--3--0--3--3--0--3--


       
--------------------------------------------------------------------------
--------------------------------------------------------------------------
-----------------3--5-----------------------------------------------------
--5--5--5--5--5--------3----3--3--3--0--3--0--3--4----5----5----5----1----


     
-----------------------------------------------------------------------
-----------------------------------------------------------------------
-----------------------------------------------------------------------
--1----3------------------3--3--3--3--3--3--3----5----5--5--0----0--0--


     
------------------------------------------------------------------------
------------------------------------------------------------------------
------------------------------------------------------------------------
--6----6--6--1----1--1----5----5--5--0----0--0----6----6--6--1----1--1--


     
----------------------------------------------------
----------------------------------------------------
-----------------3--5-------------------------------
--5--5--5--5--5--------3----3--3--3--0--3--3--0--3--


     
----------------------------------------------------
----------------------------------------------------
-----------------3--5-------------------------------
--5--5--5--5--5--------3----3--3--3--0--3--0--3--4--


     
----------------------------------------------------
----------------------------------------------------
-----------------3--5-------------------------------
--5--5--5--5--5--------3----3--3--3--0--3--3--0--3--


     
--------------------------------------------------------------------------
--------------------------------------------------------------------------
-----------------3--5-----------------------------------------------------
--5--5--5--5--5--------3----3--3--3--0--3--0--3--4----5----5----5----1----


      
---------------------------------------------------------------------
---------------------------------------------------------------------
---------------------------------------------------------------------
--1----3------------------3--3--3--3--3--3--3----5----5----5----1----


     
-----------------------------------------------------------------------
-----------------------------------------------------------------------
-----------------------------------------------------------------------
--1----3------------------3--3--3--3--3--3--3----5----5--5--0----0--0--


     
------------------------------------------------------------------------
------------------------------------------------------------------------
------------------------------------------------------------------------
--6----6--6--1----1--1----5----5--5--0----0--0----6----6--6--1----1--1--


     
----------------------------------------------------
----------------------------------------------------
----------------------------------------------------
--5--5--5--5--5--5--5--5----3--3--3--3--3--3--3--3--


     
----------------------------------------------------
----------------------------------------------------
----------------------------5--5--------------------
--1--1--1--1--1--1--1--1----------5--5--3--3--3--3--


    
----------------------------------------------------
----------------------------------------------------
----------------------------------------------------
--5--5--5--5--5--5--5--5----3--3--3--3--3--3--3--3--


     
----------------------------------------------------
----------------------------------------------------
----------------------------5--5--------------------
--1--1--1--1--1--1--1--1----------5--5--3--3--3--3--


     
----------------------------------------------------
----------------------------------------------------
----------------------------5--5--------------------
--1--1--1--1--1--1--1--1----------5--5--3--3--3--3--


     
----------------------------------------------------
----------------------------------------------------
-----------------3--5-------------------------------
--5--5--5--5--5--------3----3--3--3--0--3--3--0--3--


              
-------------------------------------------------------------------------|
-------------------------------------------------------------------------|
-----------------3--5----------------------------------------------------|
--5--5--5--5--5--------3----3--3--3--0--3--0--3--4----5\-----------------|





Tablature Legend
----------------
L - tied note
x - dead note
g - grace note
(n) - ghost note
> - accentuded note
NH - natural harmonic
AH - artificial harmonic
TH - tapped harmonic
SH - semi harmonic
PH - pitch harmonic
h - hammer on
p - pull off
b - bend
br - bendRelease
pb - preBend
pbr - preBendRelease
brb - bendReleaseBend
\n/ - tremolo bar dip
\n - tremolo bar dive
-/n - tremolo bar Release up
/n\ - tremolo bar inverted dip
/n - tremolo bar return
-\n - tremolo bar Release down
S - shift slide
s - legato slide
/ -  slide into from below or out of upwards
\ -  slide into from above or out of downwards
~ - vibrato
W - wide vibrato
tr - trill
TP - tremolo picking
T - tapping
S - slap
P - pop
< - fade in
^ - brush up
v - brush down
PM - palm mute
Login or Register to remove this ad.